PrimaNota.ru - самый крупный в мире бесплатный архив песенных текстов, аккордов, табулатур и нот


Himsa - Haunter - таба, видео

Регистрация Запомнить меня
Войти через:  Facebook Google Twitter Vk Yandex Mail.ru

Himsa - Haunter - таба, видео

Печатать
Просмотров: 126
Уроки эстрадного вокала в Санкт-Петербурге
This song actually wasn't all that hard to tab and is a lotta fun to play
please rate and comment
ewlord-1492@hotmail.com

Tuning is Drop-C


Through most of the song both guitars play the same thing

Verse

Both Guitars:
D|-----------------|-----------------|----------|-----------------|-----------------|
A|-----------------|-----------------|----------|-----------------|-----------------|
F|-----------------|-----------------|-----0~---|-----------------|-----------------|
C|-------3---5---6-|---5---3---5-----|---2------|-------3---6---5-|-----------------|
G|-2-2-2-2-2-2-2-2-|-2-2-2-2-2-2-2-2-|-1--------|-2-2-2-2-2-2-2-2-|-2-2-2-2-1-1-1-1-|
C|-2-2-2-2-2-2-2-2-|-2-2-2-2-2-2-2-2-|----------|-2-2-2-2-2-2-2-2-|-2-2-2-2-1-1-1-1-|
     . .   .   .     .   .   .   . .                . .   .   .     . . . . . . . .

D|-----------------|-----------------|----------|-----------------|-----------------|
A|-----------------|-----------------|----------|-----------------|-----------------|
F|-----------------|-----------------|-----0~---|-----------------|-----------------|
C|-------3---5---6-|---5---3---5-----|---2------|-------3---6---5-|-----------------|
G|-2-2-2-2-2-2-2-2-|-2-2-2-2-2-2-2-2-|-1--------|-2-2-2-2-2-2-2-2-|-2---------------|
C|-2-2-2-2-2-2-2-2-|-2-2-2-2-2-2-2-2-|----------|-2-2-2-2-2-2-2-2-|-2-666655553333--|
     . .   .   .     .   .   .   . .                . .   .   .     . 

Chorus

Both Guitars:
D|-----------------|------------------|-------------------|---------------------|
A|-----------------|------------------|-------------------|-------5-5-5-5-5-5-5-|
F|-----------------|------------------|-------------------|---------------------|
C|-----------9*----|------6-5-----5---|-------------9*----|-------2-2-2-2-2-2-2-|
G|-6-------------5-|-(5)------7-8---6-|-(6)-------------2-|-(2)-2-2-2-2-2-2-2-2-|
C|-6--6666-6-----5-|-(5)------------6-|-(6)--6666-6-----2-|-(2)-2-2-2-2-2-2-2-2-|
      .... .                                 .... .             .  

D|-----------------|------------------|-------------------|---------------------|
A|-----------------|------------------|-------------------|---------------------|
F|-----------------|------------------|-------------------|---------------------|
C|-----------9*----|------6-5-----5~--|-------------------|---------------------|
G|-6-------------5-|-(5)------7-8-----|-6~-----9~-----8---|-5~------------------|
C|-6--6666-6-----5-|-(5)--------------|-6~-----9~-----8---|-5~------------------|
      .... .                               

Interlude #1

Guitar 1:
D|----------------|------------------|----------------|-----------------|
A|----------------|------------------|----------------|-----------------|
F|----------------|------------------|--------------9-|-(9)~------------|
C|----9-6-8-9-----|------6-5-----5---|----9-6-8-9---5-|-(5)~------------|
G|-6------------5-|-(5)------7-8-----|-6--------------|-----------------|
C|-6------------5-|-(5)--------------|-6--------------|-----------------|

Guitar 2:
D|----------------|------------------|----------------|-----------------|
A|----------------|------------------|----------------|-----------------|
F|----------------|------------------|----------------|-----------------|
C|----------------|------------------|----------------|-----------------|
G|-6------------5-|-(5)--------------|-6------------2-|-(2)-------------|
C|-6------------5-|-(5)--------------|-6------------2-|-(2)-------------|

Guitar 1:
D|----------------|------------------|----------------|-----------------|
A|----------------|------------------|----------------|-----------------|
F|----------------|------------------|----------------|-----------------|
C|----9-6-8-9-----|------6-5-----5---|----------------|-----------------|
G|-6------------5-|-(5)------7-8-----|-6-----9----8---|-5~--------------|
C|-6------------5-|-(5)--------------|-6-----9----8---|-5~--------------|

Guitar 2:
D|----------------|------------------|----------------|-----------------|
A|----------------|------------------|----------------|-----------------|
F|----------------|------------------|----------------|-----------------|
C|----------------|------------------|----------------|-----------------|
G|-6------------5-|-(5)--------------|-6-----9----8---|-5---------------|
C|-6------------5-|-(5)--------------|-6-----9----8---|-5---------------|

Interlude #2

Guitar 1:
D|--------------|--------------|--------------|-(first 3x)--|-(last time)-----|
A|--------------|--------------|--------------|-------------|-----------------|
F|------0~------|------0~------|------0~------|-------------|-----------------|
C|----2---------|----2---------|--------------|----5h6p5~---|-----------------|
G|--------------|--------------|----7---------|-------------|-6-6-6-6-6-6-6-6-|
C|-2~-----------|-3~-----------|-5~-----------|-6~----------|-6-6-6-6-6-6-6-6-|
                                                              . . . . . . . . 
Guitar 2: (after guitar 1 plays twice)
D|--------------|--------------|--------------|-(first time)|-(last time)-----|
A|--------------|--------------|--------------|-------------|-----------------|
F|--------------|--------------|--------------|-------------|-----------------|
C|--------------|--------------|--------------|-------------|-----------------|
G|--------------|--------------|--------------|-------------|-6-6-6-6-6-6-6-6-|
C|-5~-----------|-6~-----------|-8~-----------|-9~----------|-6-6-6-6-6-6-6-6-|
                                                              . . . . . . . . 
Break (guitar 1 plays same thing while guitar changes every 2x)

Guitar 1: (play 6x)
D|----------------------------------|------------------------------|
A|----------------------------------|------------------------------|
F|-7------7------7-10-8------8------|-8-11-10------10------11---11-|
C|---0000---0000--------0000---0000-|---------0000----0000----0----|
G|----------------------------------|------------------------------|
C|----------------------------------|------------------------------|
     ....   ....        ....   ....           ....    ....    .  

Guitar 2: (first 2x)
D|----------------------------------|------------------------------|
A|----------------------------------|------------------------------|
F|----------------------------------|------------------------------|
C|----------------------------------|------------------------------|
G|-0--------------------------------|----------------------4----4--|
C|-0--------------------------------|----------------------4----4--|
   .                                                       .    .  

Guitar 2: (second 2x)
D|----------------------------------|------------------------------|
A|----------------------------------|------------------------------|
F|----------------------------------|------------------------------|
C|----------------------------------|------------------------------|
G|-0------------------1-------------|------3---------------4----4--|
C|-0------------------1-------------|------3---------------4----4--|
                                                           .    .  
Guitar 2: (last 2x)
D|---------------------------------------|-------------------------------|
A|---------------------------------------|-------------------------------|
F|-10------10------10-13-11------11------|-11-14-13------13------14---14-|
C|----0000----0000----------0000----0000-|----------0000----0000----0----|
G|---------------------------------------|-------------------------------|
C|---------------------------------------|-------------------------------|
      ....    ....          ....    ....            ....    ....    .  

Solo:

Guitar 1:
D|-----------------------------|------------|--------------------------|----------|
A|-----------------------------|------------|--------------------------|----------|
F|-13--------------13-15----16-|----15~-----|-13--------------13-15-16-|-12~------|
C|----131313131313-------13----|-13---------|----131313131313----------|----------|
G|-----------------------------|------------|--------------------------|----------|
C|-----------------------------|------------|--------------------------|----------|

Guitar 2:
D|-----------------------------|------------|--------------------------|----------|
A|-----------------------------|------------|--------------------------|----------|
F|-----------------------------|------------|--------------------------|----------|
C|-----------------------------|------------|--------------------------|----------|
G|-6~------------------------5-|-(5)~-------|-6~-----------------------|-2~-------|
C|-6~------------------------5-|-(5)~-------|-6~-----------------------|-2~-------|

Guitar 1: 
D|-------------------------|---------------------|-------------------|------------|
A|-------------------------|---------------------|-------------------|------------|
F|-13-15----16----15----16-|-(16)--15-13-15~-----|-------------------|------------|
C|-------13----13----13----|---------------------|---------------15--|-14~--------|
G|-------------------------|---------------------|-13-----14---------|------------|
C|-------------------------|---------------------|-------------------|------------|

D|-------------------------|---------------------|-------------------|------------|
A|-------------------------|---------------------|-------------------|------------|
F|-------------------------|---------------------|-------------------|------------|
C|-------------------------|---------------------|-------------------|------------|
G|-6~-------------------5--|-(5)-----------------|-6------9------8---|-5----------|
C|-6~-------------------5--|-(5)-----------------|-6------9------8---|-5----------|

Outro:

Both Guitars:
D|---------------------------------------------------------------|
A|---------------------------------------------------------------|
F|-----------------------------0---------------------------------|
C|---------------------------2-----------------------------------|
G|-3-2---2-2---2-2---2-2---1-------3-2---2-2---2-2---2-2---1--1--|
C|-3-2---2-2---2-2---2-2-----------3-2---2-2---2-2---2-2---1--1--|

D|---------------------------------------------------------------|
A|---------------------------------------------------------------|
F|-----------------------------0---------------------------------|
C|---------------------------2-----------------------------------|
G|-3-2---2-2---2-2---2-2---1-------3-2---2-2---2-2---2-6--5--3---|
C|-3-2---2-2---2-2---2-2-----------3-2---2-2---2-2---2-6--5--3---|

Guitar 2: (after above part 2x, use WAH and vibrato)
D|---------------------------------------------------------------|
A|---------------------------------------------------------------|
F|-10p9~---------------------------15~---------------------------|
C|---------------------------------------------------------------|
G|---------------------------------------------------------------|
C|---------------------------------------------------------------|

That's about it

Here's the order:

Verse        2x
Chorus       1x
Verse        1x
Chorus       1x
Interlude #1 1x
Interlude #2 1x
Verse        1x
Chorus       1x
Interlude #1 1x
Break 
Solo
Interlude #1 1x (play last 2 measures 5 times)
Outro
Добавлено: 25.07.2012
Другие материалы по этой песне:
  • Аккорды и текст

Страница создана 25.07.2012
http://primanota.ru/himsa/haunter-chords.htm
Привет, Гость.
Предлагаем пройти революционный курс по гитаре.
Подарок от PrimaNota.Ru, забирай!