PrimaNota.ru - самый крупный в мире бесплатный архив песенных текстов, аккордов, табулатур и нот


Himsa - Dominion - текст песни, таба, видео

Регистрация Запомнить меня
Войти через:  Facebook Google Twitter Vk Yandex Mail.ru

Himsa - Dominion - текст песни, таба, видео

Печатать
Просмотров: 155
Tabbed by:carl
Email: surfrat1234567@hotmail.com

Tuning:D
 Riff:A
e|----------------------------------------------------------------------|
B|----------------------------------------------------------------------|
G|-h8p0—h12p0-h10p0-h12p0-h13p0-h12p0-h10p0-h12p0-h12p0-h10p0-h8p0-h10p0|
D|----------------------------------------------------------------------|
A|----------------------------------------------------------------------|
E|----------------------------------------------------------------------|
Riff:A cont
e|--------------------|
B|--------------------|
G|-h10p0-h8p0-h7p0----|
D|--------------------|
A|--------------------|
E|--------------------|

e|----------------------------------------------------------------|
B|----------------------------------------------------------------|
G|-8p0-12p0-10p0-12p0-13p0-12p0-10p0-12p0-12p0-10p0-8p0-12p0-h10~-|
D|----------------------------------------------------------------|
A|----------------------------------------------------------------|
E|----------------------------------------------------------------|

Riff:A x1

Riff:B
e|--------------------------------------------------------------------|
B|--------------------------------------------------------------------|
G|--------------------------------------------------------------------|
D|-6----------8-10-5-----------------3-1-----------------------3-1----|
A|-6---6-5-3------------1h3-1h3--1-3-----3—--1h3---1h3-1h3-1-3-----3--|
E|-6------------------------------------------------------------------|
Riff:B cont
e|----------------------------------------------|
B|----------------------------------------------|
G|----------------------------------------------|
D|---------------3-1------6-------8-------10----|
A|-1-h3-1-h3-1-3-----3----6-------8-------10----|
E|------------------------6-xxxxx-8-xxxxx-10----|





| /  slide up
| \  slide down
| h  hammer-on
| p  pull-off
| ~  vibrato
| +  harmonic
| x  Mute note

another tab email comments, wes still needs to die.
Добавлено: 14.03.2012
Другие материалы по этой песне:

Страница создана 14.03.2012
http://primanota.ru/himsa/dominion-chords.htm
Привет, Гость.
Предлагаем пройти революционный курс по гитаре.
Подарок от PrimaNota.Ru, забирай!