PrimaNota.ru - самый крупный в мире бесплатный архив песенных текстов, аккордов, табулатур и нот


Himsa - Curseworship - таба, видео

Регистрация Запомнить меня
Войти через:  Facebook Google Twitter Vk Yandex Mail.ru

Himsa - Curseworship - таба, видео

Печатать
Просмотров: 126
Artist: Himsa
Album: Summon in Thunder

email me at ewlord-1492@hotmail.com if you want the powertab
please rate and comment



 

 

Gtr I (C G C F A D) - 'Untitled'
Gtr II (C G C F A D) - 'Untitled'
Gtr III (C G C F A D) - 'Untitled'


  Q=208
  Gtr I
  E E E E E E E E   S S E E S S E E S S E   E E E E E E E E   W
|-----------------|-----------------------|-----------------|------|
|-----------------|-----------------------|-----------------|------|
|-----------------|-----------------------|-----------------|-7----|
|-----------------|-----------------------|-----------------|------|
|-------1---0-----|-----------------------|-------1---0-----|-5----|
|-0-3-5---0---0-0-|-0-0-0-0-0-0-0-0-0-0-0-|-0-3-5---0---0-0-|------|
|
| Gtr II
| E E E E E E E E   W                       E E E E E E E E   W
|-----------------|-----------------------|-----------------|------|
|-----------------|-----------------------|-----------------|------|
|-----------------|-----------------------|-----------------|-3----|
|-----------------|-----------------------|-----------------|------|
|-------1---0-----|-----------------------|-------1---0-----|-1----|
|-0-3-5---0---0-0-|-----------------------|-0-3-5---0---0-0-|------|


    E E E E E E E E    E  E E  E E  Q.     E E E E E E E E   E E E  E E  Q.
||------------------|--------------------|-----------------|-----------------|
||o-----------------|--------------------|-----------------|-8-8-------------|
||------------------|-10-10--------------|-----------------|--------9---10---|
||------------------|---------10---12----|-----------------|-----------------|
||o-------1---0-----|--------------------|-------1---0-----|-----------------|
||--0-3-5---0---0-0-|-------0----0-------|-0-3-5---0---0-0-|-----0----0------|
|
|   E E E E E E E E    E  E E  E E  Q.     E E E E E E E E   E E E  E E  Q.
||------------------|--------------------|-----------------|-----------------|
||o-----------------|--------------------|-----------------|-----------------|
||------------------|--7--7--------------|-----------------|-9-9-------------|
||------------------|----------8----7----|-----------------|-------10---12---|
||o-------1---0-----|--------------------|-------1---0-----|-----------------|
||--0-3-5---0---0-0-|-------0----0-------|-0-3-5---0---0-0-|-----0----0------|


  E E E E E E E E    E  E E  E E  Q.     W          E Q.   Q  Q
|-----------------|--------------------|----------|---------------||
|-----------------|--------------------|----------|--------------o||
|-----------------|-10-10--------------|----------|---------------||
|-----------------|---------10---12----|----------|---------------||
|-------1---0-----|--------------------|-1--------|-x-8----3--5--o||
|-0-3-5---0---0-0-|-------0----0-------|-1--------|-x-8----3--5---||
|
| E E E E E E E E    E  E E  E E  Q.     W          E Q.   Q  Q
|-----------------|--------------------|----------|---------------||
|-----------------|--------------------|----------|--------------o||
|-----------------|--7--7--------------|----------|---------------||
|-----------------|----------8----7----|----------|---------------||
|-------1---0-----|--------------------|-1--------|-x-8----3--5--o||
|-0-3-5---0---0-0-|-------0----0-------|-1--------|-x-8----3--5---||


  E E E E E E E E    E  E E E E E E E   E E E E E E E E    E  E  E E  E E E  E
|-----------------|-------------------|-----------------|----------------------|
|-----------------|-------------------|-----------------|----------------------|
|-7-----5-----9---|-10------7-----5-7-|-9-----7-----9---|-10----12---10---9-10-|
|---0-0---0-0---0-|-----0-0---0-0-----|---8-8---8-8---8-|-----8----8----8------|
|-----------------|-------------------|-----------------|----------------------|
|-----------------|-------------------|-----------------|----------------------|
|
| W                 +W                  W                 +W
|-----------------|-------------------|-----------------|----------------------|
|-----------------|-------------------|-----------------|----------------------|
|-----------------|-------------------|-----------------|----------------------|
|-----------------|-------------------|-----------------|----------------------|
|-0---------------|-(0)---------------|-8---------------|-(8)------------------|
|-0---------------|-(0)---------------|-8---------------|-(8)------------------|


   E  E  E E  E  E  E  E    E   E  E E  E  E  E  E
|------------------------|-------------------------|
|------------------------|-------------------------|
|-10-------9-------12----|-10--------9-------10----|
|------------------------|-------------------------|
|----10-10---10-10----10-|-----10-10---10-10----10-|
|------------------------|-------------------------|
|
|  W                       +W
|------------------------|-------------------------|
|------------------------|-------------------------|
|------------------------|-------------------------|
|------------------------|-------------------------|
|--5---------------------|-(5)---------------------|
|--5---------------------|-(5)---------------------|


  E E E E E E E E   E E E E  E E Q
|-----------------|-----------------|
|-----------------|-----------------|
|-7-----5-----7---|-------9-10-9-7--|
|---8-8---8-8---8-|-5-7-8-----------|
|-----------------|-----------------|
|-----------------|-----------------|
|
| W                 E E E E  E E Q
|-----------------|-----------------|
|-----------------|-----------------|
|-----------------|-----------------|
|-----------------|-----------------|
|-8---------------|-------7--8-7-5--|
|-8---------------|-5-7-8-----------|


  E E E E E E E E    E  E E E E E E E   E E E E E E E E    E  E  E E  E E E  E
|-----------------|-------------------|-----------------|----------------------|
|-----------------|-------------------|-----------------|----------------------|
|-7-----5-----9---|-10------7-----5-7-|-9-----7-----9---|-10----12---10---9-10-|
|---0-0---0-0---0-|-----0-0---0-0-----|---8-8---8-8---8-|-----8----8----8------|
|-----------------|-------------------|-----------------|----------------------|
|-----------------|-------------------|-----------------|----------------------|
|
| W                 +W                  W                 +W
|-----------------|-------------------|-----------------|----------------------|
|-----------------|-------------------|-----------------|----------------------|
|-----------------|-------------------|-----------------|----------------------|
|-----------------|-------------------|-----------------|----------------------|
|-0---------------|-(0)---------------|-8---------------|-(8)------------------|
|-0---------------|-(0)---------------|-8---------------|-(8)------------------|
|
| Gtr III
| W                  W                  E E E E E E E E    E  E  E E  E E E  E
|-----------------|-------------------|-----------------|----------------------|
|-----------------|-------------------|-8-----6-----8---|--8----10----6---6--8-|
|-----------------|-------------------|-----------------|----------------------|
|-----------------|-------------------|---8-8---8-8---8-|-----8----8----8------|
|-----------------|-------------------|-----------------|----------------------|
|-----------------|-------------------|-----------------|----------------------|


   E  E  E E  E  E  E  E    E   E  E E  E  E  Q     W          +W
|------------------------|------------------------|----------|--------|
|------------------------|------------------------|----------|--------|
|-10-------9-------12----|-10--------9-------10\--|-7--------|-(7)----|
|------------------------|------------------------|----------|--------|
|----10-10---10-10----10-|-----10-10---10-10------|----------|--------|
|------------------------|------------------------|----------|--------|
|
|  W                       +W                       W          +W
|------------------------|------------------------|----------|--------|
|------------------------|------------------------|----------|--------|
|------------------------|------------------------|----------|--------|
|------------------------|------------------------|----------|--------|
|--5---------------------|-(5)--------------------|-8--------|-(8)----|
|--5---------------------|-(5)--------------------|-8--------|-(8)----|
|
|  E  E  E E  E  E  E  E    E   E  E E  E  E  E     W          +W
|------------------------|------------------------|----------|--------|
|-10-------8-------11----|-10--------8------------|----------|--------|
|------------------------|-------------------10\--|----------|--------|
|------------------------|------------------------|-8--------|-(8)----|
|----10-10---10-10----10-|-----10-10---10-10------|----------|--------|
|------------------------|------------------------|----------|--------|


    E E E E E E E E   E E E E E E E E   E E E E E E E E   +E  E E E E E E E
||------------------|-----------------|-----------------|------------------|
||o-----------------|-----------------|-----------------|------------------|
||------------------|-----------------|-----------------|------------------|
||------------------|-----------------|-----------------|------------------|
||o-------1---0-----|-----------------|-------1---0---5-|-(5)-3------------|
||--0-3-5---0---0-0-|-0-3-0-0-6-5-3-0-|-0-3-5---0---0---|-------6-5-3-5-3-0|
|
|   E E E E E E E E   E E E E E E E E   E E E E E E E E   +E  E E E E E E E
||------------------|-----------------|-----------------|------------------|
||o-----------------|-----------------|-----------------|------------------|
||------------------|-----------------|-----------------|------------------|
||------------------|-----------------|-----------------|------------------|
||o-------1---0-----|-----------------|-------1---0---5-|-(5)-3------------|
||--0-3-5---0---0-0-|-0-3-0-0-6-5-3-0-|-0-3-5---0---0---|-------6-5-3-5-3-0|


  E E E E E E E E   E E E E E E E E   E E E E E E E E   E E E E  E  E E E
|-----------------|-----------------|-----------------|--------------------||
|-----------------|-----------------|-----------------|-------------------o||
|-----------------|-----------------|-----------------|--------------------||
|-----------------|-----------------|-----------------|--------------------||
|-------1---0-----|-----------------|-5-5-----7-7-----|-8-8-----10-10-----o||
|-0-3-5---0---0-0-|-0-3-0-0-6-5-3-0-|-5-5-0-0-7-7-0-0-|-8-8-0-0-10-10-0-0--||
|
| E E E E E E E E   E E E E E E E E   E E E E E E E E   E E E E  E  E E E
|-----------------|-----------------|-----------------|--------------------||
|-----------------|-----------------|-----------------|-------------------o||
|-----------------|-----------------|-----------------|--------------------||
|-----------------|-----------------|-----------------|--------------------||
|-------1---0-----|-----------------|-5-5-----7-7-----|-8-8-----10-10-----o||
|-0-3-5---0---0-0-|-0-3-0-0-6-5-3-0-|-5-5-0-0-7-7-0-0-|-8-8-0-0-10-10-0-0--||


    H     H       H     H       H     Q   Q     H     Q   Q
||-------------|-------------|---------------|--------------|
||o------------|-------------|---------------|--------------|
||--9----11----|-12-----9----|-12----14--15--|-11----12--14-|
||-------------|-------------|---------------|--------------|
||o-7-----9----|-10-----7----|-10----12--13--|--9----10--12-|
||-------------|-------------|---------------|--------------|
|
|   W            +W             W               W
||-------------|-------------|---------------|--------------|
||o------------|-------------|---------------|--------------|
||-------------|-------------|---------------|--------------|
||-------------|-------------|---------------|--7-----------|
||o-2----------|-(2)---------|--5------------|--5-----------|
||--2----------|-(2)---------|--5------------|--4-----------|


  H     H       H     H       W           W
|------------|-------------|-----------|--------||
|------------|-------------|-----------|-------o||
|-9----11----|-12-----9----|-16--------|-14-----||
|------------|-------------|-----------|--------||
|-7-----9----|-10-----7----|-14--------|-12----o||
|------------|-------------|-----------|--------||
|
| W            +W             W           W
|------------|-------------|-----------|--------||
|------------|-------------|-----------|-------o||
|------------|-------------|-----------|--------||
|------------|-------------|-----------|--------||
|-2----------|-(2)---------|-10--------|--7----o||
|-2----------|-(2)---------|-10--------|--7-----||


    E E E E E E E E    E  E E E E E E E
||------------------|-------------------|
||o-----------------|-------------------|
||--7-----5-----9---|-10------7-----5-7-|
||----0-0---0-0---0-|-----0-0---0-0-----|
||o-----------------|-------------------|
||------------------|-------------------|
|
|   W                 +W
||------------------|-------------------|
||o-----------------|-------------------|
||------------------|-------------------|
||------------------|-------------------|
||o-0---------------|-(0)---------------|
||--0---------------|-(0)---------------|


  E E E E E E E E    E  E  E E  E E E  E
|-----------------|-----------------------|
|-----------------|-----------------------|
|-9-----7-----9---|-10----12---10---9-10--|
|---8-8---8-8---8-|-----8----8----8-------|
|-----------------|-----------------------|
|-----------------|-----------------------|
|
| W                 +W
|-----------------|-----------------------|
|-----------------|-----------------------|
|-----------------|-----------------------|
|-----------------|-----------------------|
|-8---------------|-(8)-------------------|
|-8---------------|-(8)-------------------|


   E  E  E E  E  E  E  E    E   E  E E  E  E  E  E
|------------------------|-------------------------|
|------------------------|-------------------------|
|-10-------9-------12----|-10--------9-------10----|
|------------------------|-------------------------|
|----10-10---10-10----10-|-----10-10---10-10----10-|
|------------------------|-------------------------|
|
|  W                       +W
|------------------------|-------------------------|
|------------------------|-------------------------|
|------------------------|-------------------------|
|------------------------|-------------------------|
|--5---------------------|-(5)---------------------|
|--5---------------------|-(5)---------------------|


  E E E E E E E E   E E E E  E E Q
|-----------------|------------------||
|-----------------|-----------------o||
|-7-----5-----7---|-------9-10-9-7---||
|---8-8---8-8---8-|-5-7-8------------||
|-----------------|-----------------o||
|-----------------|------------------||
|
| W                 E E E E  E E Q
|-----------------|------------------||
|-----------------|-----------------o||
|-----------------|------------------||
|-----------------|------------------||
|-8---------------|-------7--8-7-5--o||
|-8---------------|-5-7-8------------||


     E E E E E E E E    E  E E  E E E E  E
||-------------------|---------------------|
||o------------------|---------------------|
||---7-----5-----9---|-10-------7-----5--7-|
||-----0-0---0-0---0-|-----0-0----0-0------|
||o------------------|---------------------|
||-------------------|---------------------|
|
|    W                 +W
||-------------------|---------------------|
||o------------------|---------------------|
||-------------------|---------------------|
||-------------------|---------------------|
||o--0---------------|-(0)-----------------|
||---0---------------|-(0)-----------------|
|
|    E E E E E E E E    E  E E  E E E E  E
||-------------------|---------------------|
||o--------------8---|-10------------------|
||--10-----9---------|---------10-----9-10-|
||-----0-0---0-0---0-|-----0-0----0-0------|
||o------------------|---------------------|
||-------------------|---------------------|


  E E E  E E E E E    E  E  E E  E E E  E
|------------------|---------------------|
|------------------|---------------------|
|-9------7-----9---|-10----12---10---9-10|
|---8-8----8-8---8-|-----8----8----8-----|
|------------------|---------------------|
|------------------|---------------------|
|
| W                  +W
|------------------|---------------------|
|------------------|---------------------|
|------------------|---------------------|
|------------------|---------------------|
|-8----------------|-(8)-----------------|
|-8----------------|-(8)-----------------|
|
| E E E  E E E E E    E  E  E E  E E E  E
|------------------|---------------------|
|-8------------8---|-10----11---10---8-10|
|-------10---------|---------------------|
|---8-8----8-8---8-|-----8----8----8-----|
|------------------|---------------------|
|------------------|---------------------|


   E  E  E E  E  E  E  E    E   E  E E  E  E  E  E
|------------------------|-------------------------|
|------------------------|-------------------------|
|-10-------9-------12----|-10--------9-------10----|
|------------------------|-------------------------|
|----10-10---10-10----10-|-----10-10---10-10----10-|
|------------------------|-------------------------|
|
|  W                       +W
|------------------------|-------------------------|
|------------------------|-------------------------|
|------------------------|-------------------------|
|------------------------|-------------------------|
|--5---------------------|-(5)---------------------|
|--5---------------------|-(5)---------------------|
|
|  E  E  E E  E  E  E  E    E   E  E E  E  E  E  E
|------------------------|-------------------------|
|-10-------8-------11----|-10--------8-------11----|
|------------------------|-------------------------|
|------------------------|-------------------------|
|----10-10---10-10----10-|-----10-10---10-10----10-|
|------------------------|-------------------------|


   E E E E E E  E E    E E E E  E E  Q
|-------------------|--------------------||
|-------------------|-------------------o||
|--7-----5------7---|--------9-10-9--7---||
|----8-8---8-8----8-|--5-7-8-------------||
|-------------------|-------------------o||
|-------------------|--------------------||
|
|  W                   E E E E  E E  Q
|-------------------|--------------------||
|-------------------|-------------------o||
|-------------------|--------------------||
|-------------------|--------------------||
|--8----------------|--------7--8-7--5--o||
|--8----------------|--5-7-8-------------||
|
|  E E E E E E  E E    E E E E  E E  Q
|-------------------|--------------------||
|-------------------|--------8-10-8-----o||
|-10-----9-----10---|---------------10---||
|----8-8---8-8----8-|----7-8-------------||
|-------------------|-10----------------o||
|-------------------|--------------------||


                                                  |--3--|
  W          +W            W            +Q     Q  Q  Q  Q
|----------|------------|------------|---------------------|
|----------|------------|------------|---------------------|
|-9--------|-(9)--------|-12---------|-(12)---14-12-14-15--|
|----------|------------|------------|---------------------|
|----------|------------|------------|---------------------|
|----------|------------|------------|---------------------|
|
| W          +W           +W            +W
|----------|------------|------------|---------------------|
|----------|------------|------------|---------------------|
|----------|------------|------------|---------------------|
|----------|------------|------------|---------------------|
|-2--------|-(2)--------|-(2)--------|--(2)----------------|
|-2--------|-(2)--------|-(2)--------|--(2)----------------|
|
| W          +W            W            +W
|----------|------------|------------|---------------------|
|----------|------------|------------|---------------------|
|-9--------|-(9)--------|--8---------|--(8)----------------|
|----------|------------|------------|---------------------|
|----------|------------|------------|---------------------|
|----------|------------|------------|---------------------|


   W           +W            H        H          W
|-----------|-------------|-------------------|--------|
|-----------|-------------|-------------------|--------|
|-14--------|-(14)--------|-12b14r===12b14r===|=12-----|
|-----------|-------------|-------------------|--------|
|-----------|-------------|-------------------|--------|
|-----------|-------------|-------------------|--------|
|
|  W           +W           +W                  +W
|-----------|-------------|-------------------|--------|
|-----------|-------------|-------------------|--------|
|-----------|-------------|-------------------|--------|
|-----------|-------------|-------------------|--------|
|--2--------|--(2)--------|-(2)---------------|-(2)----|
|--2--------|--(2)--------|-(2)---------------|-(2)----|
|
|  W           +W            W                  +W
|-----------|-------------|-------------------|--------|
|-----------|-------------|-------------------|--------|
|--7--------|--(7)--------|--6----------------|-(6)----|
|-----------|-------------|-------------------|--------|
|-----------|-------------|-------------------|--------|
|-----------|-------------|-------------------|--------|


  E E E E E E E E   E E E E E E E E   E E E E E E E E   E E Q  E E Q
|-----------------|-----------------|-----------------|---------------|
|-----------------|-----------------|-----------------|---------------|
|-----------------|-----------------|-----------------|---------------|
|-2-2-------------|-1-1-------------|-0-0-------------|---------------|
|-----2-2-2-2-2-2-|-----2-2-2-2-2-2-|-----2-2-2-2-2-2-|-2-2-3--2-2-6--|
|-----2-2-2-2-2-2-|-----2-2-2-2-2-2-|-----2-2-2-2-2-2-|-2-2-3--2-2-6--|
|
| E E E E E E E E   E E E E E E E E   E E E E E E E E   E E Q  E E Q
|-----------------|-----------------|-----------------|---------------|
|-----------------|-----------------|-----------------|---------------|
|-----------------|-----------------|-----------------|---------------|
|-2-2-------------|-1-1-------------|-0-0-------------|---------------|
|-----2-2-2-2-2-2-|-----2-2-2-2-2-2-|-----2-2-2-2-2-2-|-2-2-3--2-2-6--|
|-----2-2-2-2-2-2-|-----2-2-2-2-2-2-|-----2-2-2-2-2-2-|-2-2-3--2-2-6--|


  E E E E E E E E   E E E E E E E E   E E E E E E E E   E E Q  E E Q
|-----------------|-----------------|-----------------|---------------|
|-----------------|-----------------|-----------------|---------------|
|-----------------|-----------------|-----------------|---------------|
|-2-2-------------|-1-1-------------|-0-0-------------|---------------|
|-----2-2-2-2-2-2-|-----2-2-2-2-2-2-|-----2-2-2-2-2-2-|-2-2----2-2----|
|-----2-2-2-2-2-2-|-----2-2-2-2-2-2-|-----2-2-2-2-2-2-|-2-2----2-2----|
|
| E E E E E E E E   E E E E E E E E   E E E E E E E E   E E Q  E E
|-----------------|-----------------|-----------------|---------------|
|-----------------|-----------------|-----------------|---------------|
|-----------------|-----------------|-----------------|---------------|
|-2-2-------------|-1-1-------------|-0-0-------------|---------------|
|-----2-2-2-2-2-2-|-----2-2-2-2-2-2-|-----2-2-2-2-2-2-|-2-2----2-2----|
|-----2-2-2-2-2-2-|-----2-2-2-2-2-2-|-----2-2-2-2-2-2-|-2-2----2-2----|


  E E E E E E E E   E E E E E E E E   E E E E E E E E   E E Q  E E Q
|-----------------|-----------------|-----------------|---------------|
|-----------------|-----------------|-----------------|---------------|
|-----------------|-----------------|-----------------|---------------|
|-2-2-------------|-1-1-------------|-0-0-------------|---------------|
|-----2-2-2-2-2-2-|-----2-2-2-2-2-2-|-----2-2-2-2-2-2-|-2-2-3--2-2-6--|
|-----2-2-2-2-2-2-|-----2-2-2-2-2-2-|-----2-2-2-2-2-2-|-2-2-3--2-2-6--|
|
| E E E E E E E E   E E E E E E E E   E E E E E E E E   E E Q  E E Q
|-----------------|-----------------|-----------------|---------------|
|-----------------|-----------------|-----------------|---------------|
|-2-2-------------|-1-1-------------|-0-0-------------|---------------|
|-----------------|-----------------|-----------------|---------------|
|-----2-2-2-2-2-2-|-----2-2-2-2-2-2-|-----2-2-2-2-2-2-|-2-2-3--2-2-6--|
|-----2-2-2-2-2-2-|-----2-2-2-2-2-2-|-----2-2-2-2-2-2-|-2-2-3--2-2-6--|


  E E E E E E E E   E E E E E E E E   E E E E E E E E   E E Q  E E
|-----------------|-----------------|-----------------|--------------|
|-----------------|-----------------|-----------------|--------------|
|-----------------|-----------------|-----------------|--------------|
|-2-2-------------|-1-1-------------|-0-0-------------|--------------|
|-----2-2-2-2-2-2-|-----2-2-2-2-2-2-|-----2-2-2-2-2-2-|-2-2----2-2---|
|-----2-2-2-2-2-2-|-----2-2-2-2-2-2-|-----2-2-2-2-2-2-|-2-2----2-2---|
|
| E E E E E E E E   E E E E E E E E   E E E E E E E E   E E Q  E E
|-----------------|-----------------|-----------------|--------------|
|-----------------|-----------------|-----------------|--------------|
|-2-2-------------|-1-1-------------|-0-0-------------|--------------|
|-----------------|-----------------|-----------------|--------------|
|-----2-2-2-2-2-2-|-----2-2-2-2-2-2-|-----2-2-2-2-2-2-|-2-2----2-2---|
|-----2-2-2-2-2-2-|-----2-2-2-2-2-2-|-----2-2-2-2-2-2-|-2-2----2-2---|


   W              Q   Q  Q  Q    +W               H      H
|--------------|---------------|---------------|---------------|
|--------------|---------------|---------------|---------------|
|--------------|---------------|---------------|---------------|
|-10-----------|-10--12--7--9--|-(9)-----------|-10-----12-----|
|--------------|---------------|---------------|---------------|
|--------------|---------------|---------------|---------------|
|
|  Q  Q  Q  Q     Q   Q  Q  Q     Q   Q  Q  Q     Q  Q   Q  Q
|--------------|---------------|---------------|---------------|
|--------------|---------------|---------------|---------------|
|--------------|---------------|---------------|---------------|
|--------------|---------------|---------------|---------------|
|--7--7--7--7--|--7---7--7--7--|--7---7--7--7--|--7--7---7--7--|
|--7--7--7--7--|--7---7--7--7--|--6---6--6--6--|--6--6---6--6--|
|
|  W              Q   Q  Q  Q    +W               H      H
|--------------|---------------|---------------|---------------|
|--------------|---------------|---------------|---------------|
|--9-----------|--9--10--5--7--|-(7)-----------|--9-----10-----|
|--------------|---------------|---------------|---------------|
|--------------|---------------|---------------|---------------|
|--------------|---------------|---------------|---------------|


   W              Q   Q   Q   Q     +H.         E  E    W
|--------------|-----------------|-------------------|--------------|
|--------------|-----------------|-------------------|--------------|
|--9-----------|--9--10---7---9--|--(9)---------9-10-|--7-----------|
|--------------|-----------------|-------------------|--------------|
|--------------|-----------------|-------------------|--------------|
|--------------|-----------------|-------------------|--------------|
|
|  Q  Q  Q  Q     Q   Q   Q   Q      Q   Q  Q   Q       Q  Q  Q  Q
|--------------|-----------------|-------------------|--------------|
|--------------|-----------------|-------------------|--------------|
|--------------|-----------------|-------------------|--------------|
|--------------|-----------------|-------------------|--------------|
|--5--5--5--5--|--5---5---5---5--|---5---5--5---5----|--5--5--5--5--|
|--5--5--5--5--|--5---5---5---5--|---4---4--4---4----|--4--4--4--4--|
|
|  W              Q   Q   Q   Q     +H.         E  E    W
|--------------|-----------------|-------------------|--------------|
|--------------|-----------------|-------------------|--------------|
|-12-----------|-12--14--10--12--|-(12)--------12-14-|-10-----------|
|--------------|-----------------|-------------------|--------------|
|--------------|-----------------|-------------------|--------------|
|--------------|-----------------|-------------------|--------------|


   W              Q   Q  Q  Q    +W               H      H
|--------------|---------------|---------------|---------------|
|--------------|---------------|---------------|---------------|
|--------------|---------------|---------------|---------------|
|-10-----------|-10--12--7--9--|-(9)-----------|-10-----12-----|
|--------------|---------------|---------------|---------------|
|--------------|---------------|---------------|---------------|
|
|  Q  Q  Q  Q     Q   Q  Q  Q     Q   Q  Q  Q     Q  Q   Q  Q
|--------------|---------------|---------------|---------------|
|--------------|---------------|---------------|---------------|
|--------------|---------------|---------------|---------------|
|--------------|---------------|---------------|---------------|
|--7--7--7--7--|--7---7--7--7--|--7---7--7--7--|--7--7---7--7--|
|--7--7--7--7--|--7---7--7--7--|--6---6--6--6--|--6--6---6--6--|
|
|  W              Q   Q  Q  Q    +W               H      H
|--------------|---------------|---------------|---------------|
|--------------|---------------|---------------|---------------|
|--9-----------|--9--10--5--7--|-(7)-----------|--9-----10-----|
|--------------|---------------|---------------|---------------|
|--------------|---------------|---------------|---------------|
|--------------|---------------|---------------|---------------|


   W              Q   Q   Q   Q     +H.         Q     H.         E  E
|--------------|-----------------|-----------------|------------------|
|--------------|-----------------|-----------------|------------------|
|--9-----------|--9--10--12--10--|-(10)--------12--|--9----------9-10-|
|--------------|-----------------|-----------------|------------------|
|--------------|-----------------|-----------------|------------------|
|--------------|-----------------|-----------------|------------------|
|
|  Q  Q  Q  Q     Q   Q   Q   Q      Q   Q  Q   Q     Q   Q  Q   Q
|--------------|-----------------|-----------------|------------------|
|--------------|-----------------|-----------------|------------------|
|--------------|-----------------|-----------------|------------------|
|--------------|-----------------|-----------------|------------------|
|--5--5--5--5--|--5---5---5---5--|---5---5--5---5--|--5---5--5---5----|
|--5--5--5--5--|--5---5---5---5--|---4---4--4---4--|--4---4--4---4----|
|
|  W              Q   Q   Q   Q     +H.         Q     H.         E  E
|--------------|-----------------|-----------------|------------------|
|--------------|-----------------|-----------------|------------------|
|-12-----------|-12--14--15--14--|-(14)--------15--|-12---------12-14-|
|--------------|-----------------|-----------------|------------------|
|--------------|-----------------|-----------------|------------------|
|--------------|-----------------|-----------------|------------------|


   H.         E  E    H.        E  E   H.        E  E   W
|------------------|-----------------|----------------|---------------|
|------------------|-----------------|----------------|---------------|
|------------------|-----------------|----------------|---------------|
|-12---------10-12-|-10---------9-10-|-9---------9-10-|-7-------------|
|------------------|-----------------|----------------|---------------|
|------------------|-----------------|----------------|---------------|
|
|  Q   Q  Q   Q       Q   Q  Q  Q      Q   Q  Q  Q      Q  Q  Q  Q
|------------------|-----------------|----------------|---------------|
|------------------|-----------------|----------------|---------------|
|------------------|-----------------|----------------|---------------|
|------------------|-----------------|----------------|---------------|
|--3---3--3---3----|--3---3--3--3----|-3---3--3--3----|-3--3--3--3----|
|--3---3--3---3----|--3---3--3--3----|-2---2--2--2----|-2--2--2--2----|
|
|  H.         E  E    H.        E  E   H.        E  E   W
|------------------|-----------------|----------------|---------------|
|------------------|-----------------|----------------|---------------|
|-10----------9-10-|--9---------7--9-|-7---------7--9-|-5-------------|
|------------------|-----------------|----------------|---------------|
|------------------|-----------------|----------------|---------------|
|------------------|-----------------|----------------|---------------|


    H     H       H     H       H     Q   Q     H     Q   Q
||-------------|-------------|---------------|--------------|
||o------------|-------------|---------------|--------------|
||--9----11----|-12-----9----|-12----14--15--|-11----12--14-|
||-------------|-------------|---------------|--------------|
||o-7-----9----|-10-----7----|-10----12--13--|--9----10--12-|
||-------------|-------------|---------------|--------------|
|
|   W            +W             W               W
||-------------|-------------|---------------|--------------|
||o------------|-------------|---------------|--------------|
||-------------|-------------|---------------|--------------|
||-------------|-------------|---------------|--7-----------|
||o-2----------|-(2)---------|--5------------|--5-----------|
||--2----------|-(2)---------|--5------------|--4-----------|


  H     H       H     H       W           W
|------------|-------------|-----------|--------||
|------------|-------------|-----------|-------o||
|-9----11----|-12-----9----|-16--------|-14-----||
|------------|-------------|-----------|--------||
|-7-----9----|-10-----7----|-14--------|-12----o||
|------------|-------------|-----------|--------||
|
| W            +W             W           W
|------------|-------------|-----------|--------||
|------------|-------------|-----------|-------o||
|------------|-------------|-----------|--------||
|------------|-------------|-----------|--------||
|-2----------|-(2)---------|-10--------|--7----o||
|-2----------|-(2)---------|-10--------|--7-----||


    E E E E E E E E    E  E E  E E  Q.     E E E E E E E E   E E E  E E  Q.
||------------------|--------------------|-----------------|-----------------|
||o-----------------|--------------------|-----------------|-8-8-------------|
||------------------|-10-10--------------|-----------------|--------9---10---|
||------------------|---------10---12----|-----------------|-----------------|
||o-------1---0-----|--------------------|-------1---0-----|-----------------|
||--0-3-5---0---0-0-|-------0----0-------|-0-3-5---0---0-0-|-----0----0------|
|
|   E E E E E E E E    E  E E  E E  Q.     E E E E E E E E   E E E  E E  Q.
||------------------|--------------------|-----------------|-----------------|
||o-----------------|--------------------|-----------------|-----------------|
||------------------|--7--7--------------|-----------------|-9-9-------------|
||------------------|----------8----7----|-----------------|-------10---12---|
||o-------1---0-----|--------------------|-------1---0-----|-----------------|
||--0-3-5---0---0-0-|-------0----0-------|-0-3-5---0---0-0-|-----0----0------|


  E E E E E E E E    E  E E  E E  Q.     W          E Q.   Q  Q
|-----------------|--------------------|----------|---------------||
|-----------------|--------------------|----------|--------------o||
|-----------------|-10-10--------------|----------|---------------||
|-----------------|---------10---12----|----------|---------------||
|-------1---0-----|--------------------|-1--------|-x-8----3--5--o||
|-0-3-5---0---0-0-|-------0----0-------|-1--------|-x-8----3--5---||
|
| E E E E E E E E    E  E E  E E  Q.     W          E Q.   Q  Q
|-----------------|--------------------|----------|---------------||
|-----------------|--------------------|----------|--------------o||
|-----------------|--7--7--------------|----------|---------------||
|-----------------|----------8----7----|----------|---------------||
|-------1---0-----|--------------------|-1--------|-x-8----3--5--o||
|-0-3-5---0---0-0-|-------0----0-------|-1--------|-x-8----3--5---||


    E E E E E E E E    E  E E E E E E E
||------------------|-------------------|
||o-----------------|-------------------|
||--7-----5-----9---|-10------7-----5-7-|
||----0-0---0-0---0-|-----0-0---0-0-----|
||o-----------------|-------------------|
||------------------|-------------------|
|
|   W                 +W
||------------------|-------------------|
||o-----------------|-------------------|
||------------------|-------------------|
||------------------|-------------------|
||o-0---------------|-(0)---------------|
||--0---------------|-(0)---------------|


  E E E E E E E E    E  E  E E  E E E  E
|-----------------|---------------------|
|-----------------|---------------------|
|-9-----7-----9---|-10----12---10---9-10|
|---8-8---8-8---8-|-----8----8----8-----|
|-----------------|---------------------|
|-----------------|---------------------|
|
| W                 +W
|-----------------|---------------------|
|-----------------|---------------------|
|-----------------|---------------------|
|-----------------|---------------------|
|-8---------------|-(8)-----------------|
|-8---------------|-(8)-----------------|


   E  E  E E  E  E  E  E    E   E  E E  E  E  E  E
|------------------------|-------------------------|
|------------------------|-------------------------|
|-10-------9-------12----|-10--------9-------10----|
|------------------------|-------------------------|
|----10-10---10-10----10-|-----10-10---10-10----10-|
|------------------------|-------------------------|
|
|  W                       +W
|------------------------|-------------------------|
|------------------------|-------------------------|
|------------------------|-------------------------|
|------------------------|-------------------------|
|--5---------------------|-(5)---------------------|
|--5---------------------|-(5)---------------------|


  E E E E E E E E   E E E E  E E Q
|-----------------|------------------||
|-----------------|-----------------o||
|-7-----5-----7---|-------9-10-9-7---||
|---8-8---8-8---8-|-5-7-8------------||
|-----------------|-----------------o||
|-----------------|------------------||
|
| W                 E E E E  E E Q
|-----------------|------------------||
|-----------------|-----------------o||
|-----------------|------------------||
|-----------------|------------------||
|-8---------------|-------7--8-7-5--o||
|-8---------------|-5-7-8------------||


   E E E E E E E E    E  E E  E E E E  E
|------------------|---------------------|
|------------------|---------------------|
|--7-----5-----9---|-10-------7-----5--7-|
|----0-0---0-0---0-|-----0-0----0-0------|
|------------------|---------------------|
|------------------|---------------------|
|
|  W                 +W
|------------------|---------------------|
|------------------|---------------------|
|------------------|---------------------|
|------------------|---------------------|
|--0---------------|-(0)-----------------|
|--0---------------|-(0)-----------------|
|
|  E E E E E E E E    E  E E  E E E E  E
|------------------|---------------------|
|--------------8---|-10------------------|
|-10-----9---------|---------10-----9-10-|
|----0-0---0-0---0-|-----0-0----0-0------|
|------------------|---------------------|
|------------------|---------------------|


  E E E  E E E E E    E  E  E E  E E E  E
|------------------|----------------------|
|------------------|----------------------|
|-9------7-----9---|-10----12---10---9-10-|
|---8-8----8-8---8-|-----8----8----8------|
|------------------|----------------------|
|------------------|----------------------|
|
| W                  +W
|------------------|----------------------|
|------------------|----------------------|
|------------------|----------------------|
|------------------|----------------------|
|-8----------------|-(8)------------------|
|-8----------------|-(8)------------------|
|
| E E E  E E E E E    E  E  E E  E E E  E
|------------------|----------------------|
|-8------------8---|-10----11---10---8-10-|
|-------10---------|----------------------|
|---8-8----8-8---8-|-----8----8----8------|
|------------------|----------------------|
|------------------|----------------------|


   E  E  E E  E  E  E  E    E   E  E E  E  E  E  E
|------------------------|-------------------------|
|------------------------|-------------------------|
|-10-------9-------12----|-10--------9-------10----|
|------------------------|-------------------------|
|----10-10---10-10----10-|-----10-10---10-10----10-|
|------------------------|-------------------------|
|
|  W                       +W
|------------------------|-------------------------|
|------------------------|-------------------------|
|------------------------|-------------------------|
|------------------------|-------------------------|
|--5---------------------|-(5)---------------------|
|--5---------------------|-(5)---------------------|
|
|  E  E  E E  E  E  E  E    E   E  E E  E  E  E  E
|------------------------|-------------------------|
|-10-------8-------11----|-10--------8-------11----|
|------------------------|-------------------------|
|------------------------|-------------------------|
|----10-10---10-10----10-|-----10-10---10-10----10-|
|------------------------|-------------------------|


   E E E E E E  E E    E E E E  E E  Q
|-------------------|-------------------|
|-------------------|-------------------|
|--7-----5------7---|--------9-10-9--7--|
|----8-8---8-8----8-|--5-7-8------------|
|-------------------|-------------------|
|-------------------|-------------------|
|
|  W                   E E E E  E E  Q
|-------------------|-------------------|
|-------------------|-------------------|
|-------------------|-------------------|
|-------------------|-------------------|
|--8----------------|--------7--8-7--5--|
|--8----------------|--5-7-8------------|
|
|  E E E E E E  E E    E E E E  E E  Q
|-------------------|-------------------|
|-------------------|--------8-10-8-----|
|-10-----9-----10---|---------------10--|
|----8-8---8-8----8-|----7-8------------|
|-------------------|-10----------------|
|-------------------|-------------------|


   E E E E E E E E    E  E E  E E E E  E
|------------------|---------------------|
|------------------|---------------------|
|--7-----5-----9---|-10-------7-----5--7-|
|----0-0---0-0---0-|-----0-0----0-0------|
|------------------|---------------------|
|------------------|---------------------|
|
|  W                 +W
|------------------|---------------------|
|------------------|---------------------|
|------------------|---------------------|
|------------------|---------------------|
|--0---------------|-(0)-----------------|
|--0---------------|-(0)-----------------|
|
|  E E E E E E E E    E  E E  E E E E  E
|------------------|---------------------|
|--------------8---|-10------------------|
|-10-----9---------|---------10-----9-10-|
|----0-0---0-0---0-|-----0-0----0-0------|
|------------------|---------------------|
|------------------|---------------------|


  E E E  E E E E E    E  E  E E  E E E  E
|------------------|----------------------|
|------------------|----------------------|
|-9------7-----9---|-10----12---10---9-10-|
|---8-8----8-8---8-|-----8----8----8------|
|------------------|----------------------|
|------------------|----------------------|
|
| W                  +W
|------------------|----------------------|
|------------------|----------------------|
|------------------|----------------------|
|------------------|----------------------|
|-8----------------|-(8)------------------|
|-8----------------|-(8)------------------|
|
| E E E  E E E E E    E  E  E E  E E E  E
|------------------|----------------------|
|-8------------8---|-10----11---10---8-10-|
|-------10---------|----------------------|
|---8-8----8-8---8-|-----8----8----8------|
|------------------|----------------------|
|------------------|----------------------|


   E  E  E E  E  E  E  E    E   E  E E  E  E  Q     W          +W
|------------------------|------------------------|----------|--------|
|------------------------|------------------------|----------|--------|
|-10-------9-------12----|-10--------9-------10\--|-7--------|-(7)----|
|------------------------|------------------------|----------|--------|
|----10-10---10-10----10-|-----10-10---10-10------|----------|--------|
|------------------------|------------------------|----------|--------|
|
|  W                       +W                       W          +W
|------------------------|------------------------|----------|--------|
|------------------------|------------------------|----------|--------|
|------------------------|------------------------|----------|--------|
|------------------------|------------------------|----------|--------|
|--5---------------------|-(5)--------------------|-8--------|-(8)----|
|--5---------------------|-(5)--------------------|-8--------|-(8)----|
|
|  E  E  E E  E  E  E  E    E   E  E E  E  E  E     W          +W
|------------------------|------------------------|----------|--------|
|-10-------8-------11----|-10--------8------------|----------|--------|
|------------------------|-------------------10\--|----------|--------|
|------------------------|------------------------|-8--------|-(8)----|
|----10-10---10-10----10-|-----10-10---10-10------|----------|--------|
|------------------------|------------------------|----------|--------|




--------------------------------------------------------------------------------


Duration Legend
---------------
W - whole; H - half; Q - quarter; E - 8th; S - 16th; T - 32nd; X - 64th; a - acciaccatura
+ - note tied to previous; . - note dotted; .. - note double dotted
Uncapitalized letters represent notes that are staccato (1/2 duration)
Irregular groupings are notated above the duration line
Duration letters will always appear directly above the note/fret number it represents the
duration for.  Duration letters with no fret number below them represent rests.  Multi-
bar rests are notated in the form Wxn, where n is the number of bars to rest for.  Low
melody durations appear below the staff

Tablature Legend
----------------
 h   - hammer-on
 p   - pull-off
 b   - bend
 pb  - pre-bend
 r   - bend release (if no number after the r, then release immediately)
 /\  - slide into or out of (from/to "nowhere")
 s   - legato slide
 S   - shift slide
 - natural harmonic
[n]  - artificial harmonic
n(n) - tapped harmonic
 ~   - vibrato
 tr  - trill
 T   - tap
 TP  - trem. picking
 PM  - palm muting
\n/  - tremolo bar dip; n = amount to dip
 \n  - tremolo bar down
 n/  - tremolo bar up
/n\  - tremolo bar inverted dip
 =   - hold bend; also acts as connecting device for hammers/pulls
 <> - volume swell (louder/softer)
 x   - on rhythm slash represents muted slash
 o   - on rhythm slash represents single note slash

Misc Legend
-----------
 |  - bar
||  - double bar
||o - repeat start
o|| - repeat end
*|  - double bar (ending)
 :  - bar (freetime)
 $  - Segno
 &  - Coda
Tempo markers -  = BPM(8/16=s8/s16), where s8 = swing 8ths, s16 = swing 16ths



--------------------------------------------------------------------------------


Добавлено: 30.04.2012
Другие материалы по этой песне:

Страница создана 30.04.2012
http://primanota.ru/himsa/curseworship-chords.htm
Привет, Гость.
Предлагаем пройти революционный курс по гитаре.
Подарок от PrimaNota.Ru, забирай!