PrimaNota.ru - самый крупный в мире бесплатный архив песенных текстов, аккордов, табулатур и нот


Himeyuri - Side Effect - таба, видео

Регистрация Запомнить меня
Войти через:  Facebook Google Twitter Vk Yandex Mail.ru

Himeyuri - Side Effect - таба, видео

Печатать
Просмотров: 89
Side Effect BY Himeyuri             
Standard Tuning
I hope you enjoy playing this song like I did 
any questions my email is  watameyue@hotmail.es

^ = Bend                x = mute note         h = hammer-on         ~ = vibrato

INTRO:Guitar (clean)
e|---------------------|---------------------|---------------------|---------------------|
B|---------------------|---------------------|---------------------|---------------------|
G|------0-----0---0----|------0-----0---0----|------0-----0---0----|------0-----0---0----|
D|-----2-2---2---2-----|-----2-2---2---2-----|-----2-2---2---2-----|-----2-2---2---2-----|
A|----2---2-2---2------|----2---2-2---2------|----2---2-2---2------|----2---2-2---2------|
E|---0-----------------|---0-----------------|---0-----------------|---0-----------------|

e|---------------------|---------------------|---------------------|---------------------|
B|---------------------|---------------------|---------------------|---------------------|
G|------0-----0---0----|------0-----0---0----|------0-----0---0----|------0-----0---0----|
D|-----2-2---2---2-----|-----2-2---2---2-----|-----2-2---2---2-----|-----2-2---2---2-----|
A|----2---2-2---2------|----2---2-2---2------|----2---2-2---2------|----2---2-2---2------|
E|---0-----------------|---0-----------------|---0-----------------|---0-----------------|

e|---------------------|
B|---------------------|
G|------0--------------|
D|-----2-2-------------|
A|----2---2------------|
E|---0-----------------|

Verse: Guitar(Dist)
e|-----------|-----------|-----------|-------------|
B|-----------|-----------|-----------|-------------|
G|-----------|-----------|-----------|-------------|
D|--4-4-2-4--|--4-4-2-4--|--4-4-2-4--|--4-4-7-7-5--|
A|--4-4-2-4--|--4-4-2-4--|--4-4-2-4--|--4-4-7-7-5--|
E|--2-2-0-2--|--2-2-0-2--|--2-2-0-2--|--2-2-5-5-3--|

e|-----------|-----------|-----------|----------------------------|
B|-----------|-----------|-----------|----------------------------|
G|-----------|-----------|-----------|----------------------------|
D|--4-4-2-4--|--4-4-2-4--|--4-4-2-4--|--4-4-7-7-5-4---------------|
A|--4-4-2-4--|--4-4-2-4--|--4-4-2-4--|--4-4-7-7-5-4-- let it ring |
E|--2-2-0-2--|--2-2-0-2--|--2-2-0-2--|--2-2-5-5-3-2---------------|

e|--------------------|-------------------------------|
B|--5/17~~~--3/15~~~--|------------------------------|
G|--------------------|------------------------------|
D|--------------------|--444-5--5-5--4--4-4--7--7-5--|
A|--------------------|--444-5--5-5--4--4-4--7--7-5--|
E|--------------------|--222-3--3-3--2--2-2--5--5-3--|

PRECHORUS: Guitar(Dist)
e|------------------------------|------------------------------|
B|------------------------------|------------------------------|
G|------------------------------|------------------------------|
D|--444-5--5-5--4--4-4--7--7-5--|--444-5--5-5--4--4-4--7--7-5--|
A|--444-5--5-5--4--4-4--7--7-5--|--444-5--5-5--4--4-4--7--7-5--|
E|--222-3--3-3--2--2-2--5--5-3--|--222-3--3-3--2--2-2--5--5-3--|

e|------------------------------|------------------------------|
B|------------------------------|------------------------------|
G|------------------------------|------------------------------|
D|--444-5--5-5--4--4-4--7--7-5--|--444-5--5-5--4--4-4--7--7-5--|
A|--444-5--5-5--4--4-4--7--7-5--|--444-5--5-5--4--4-4--7--7-5--|
E|--222-3--3-3--2--2-2--5--5-3--|--222-3--3-3--2--2-2--5--5-3--|

e|------------------------------|------------------------------|
B|------------------------------|------------------------------|
G|------------------------------|------------------------------|
D|--444-5--5-5--4--4-4--7--7-5--|--444-5--5-5--4--4-4--7--7-5--|
A|--444-5--5-5--4--4-4--7--7-5--|--444-5--5-5--4--4-4--7--7-5--|
E|--222-3--3-3--2--2-2--5--5-3--|--222-3--3-3--2--2-2--5--5-3--|

e|------------------------------|------------------------------|
B|------------------------------|------------------------------|
G|------------------------------|------------------------------|
D|--444-5--5-5--4--4-4--7--7-5--|--444-5--5-5--4--4-4----------|
A|--444-5--5-5--4--4-4--7--7-5--|--444-5--5-5--4--4-4----------|
E|--222-3--3-3--2--2-2--5--5-3--|--222-3--3-3--2--2-2--2/14/2--|

e|---------------------|--------------------|--------------------|--------------------|   
B|---------------------|--------------------|--------------------|--------------------|
G|------4-4-3-3-2-2----|-----4-4-3-3-2-2----|-----4-4-3-3-2-2----|-----4-4-3-3-2-2----|
D|--222-4-4-3-3-2-2-5--|-222-4-4-3-3-2-2-5--|-222-4-4-3-3-2-2-5--|-222-4-4-3-3-2-2-5--|
A|--222-2-2-1-1-0-0-5--|-222-2-2-1-1-0-0-5--|-222-2-2-1-1-0-0-5--|-222-2-2-1-1-0-0-5--|
E|--000-------------3--|-000-------------3--|-000-------------3--|-000-------------3--|

e|-------------------|---------------------|---------------------|
B|-------------------|---------------------|---------------------|
G|-------------------|---------------------|---------------------|
D|--44-44--44-44--4--|--2---5-/12--2--4-5--|--2---5-/12--2--4-5--|
A|--44-44--44-44--4--|--2---5-/12--2--4-5--|--2---5-/12--2--4-5--|
E|--24-22--22-22--2--|--0---3-/10--0--2-3--|--0---3-/10--0--2-3--|
 PM:...............

e|----------------|----------------|----------------|-------------------|
B|----------------|----------------|----------------|-----------13-15b--|
G|-----------4-5--|-----------4-5--|-----------4-5--|-------------------|
D|--2--------4-5--|--2--------4-5--|--2--------4-5--|--2----------------|
A|--2--------2-3--|--2--------2-5--|--2--------2-3--|--2----------------|
E|--00000000------|--00000000------|--00000000------|--00000000---------|

e|------------------------------|------------------------------|
B|------------------------------|------------------------------|
G|------------------------------|------------------------------|
D|--444-5--5-5--4--4-4--7--7-5--|--444-5--5-5--4--4-4--7--7-5--|
A|--444-5--5-5--4--4-4--7--7-5--|--444-5--5-5--4--4-4--7--7-5--|
E|--222-3--3-3--2--2-2--5--5-3--|--222-3--3-3--2--2-2--5--5-3--|

e|------------------------------|------------------------------|
B|------------------------------|------------------------------|
G|------------------------------|------------------------------|
D|--444-5--5-5--4--4-4--7--7-5--|--444-5--5-5--4--4-4--7--7-5--|
A|--444-5--5-5--4--4-4--7--7-5--|--444-5--5-5--4--4-4--7--7-5--|
E|--222-3--3-3--2--2-2--5--5-3--|--222-3--3-3--2--2-2--5--5-3--|

e|---------------------|---------------------|
B|---------------------|---------------------|
G|---------------------|---------------------|
D|--2---5-/12--2--4-5--|--2---5-/12--2--4-5--|
A|--2---5-/12--2--4-5--|--2---5-/12--2--4-5--|
E|--0---3-/10--0--2-3--|--0---3-/10--0--2-3--|

e|----------------|----------------|----------------|-------------------|
B|----------------|----------------|----------------|-----------13-15b--|
G|-----------4-5--|-----------4-5--|-----------4-5--|-------------------|
D|--2--------4-5--|--2--------4-5--|--2--------4-5--|--2----------------|
A|--2--------2-3--|--2--------2-5--|--2--------2-3--|--2----------------|
E|--00000000------|--00000000------|--00000000------|--00000000---------|

e|------------------------------|------------------------------|
B|------------------------------|------------------------------|
G|------------------------------|------------------------------|
D|--444-5--5-5--4--4-4--7--7-5--|--444-5--5-5--4--4-4--7--7-5--|
A|--444-5--5-5--4--4-4--7--7-5--|--444-5--5-5--4--4-4--7--7-5--|
E|--222-3--3-3--2--2-2--5--5-3--|--222-3--3-3--2--2-2--5--5-3--|

e|------------------------------|-----------------------------------------------|
B|------------------------------|-----------------------------------------------|
G|------------------------------|-----------------------------------------------|
D|--444-5--5-5--4--4-4--7--7-5--|--444-5--5-5--4--4-4--7--7-5—-2----------------|
A|--444-5--5-5--4--4-4--7--7-5--|--444-5--5-5--4--4-4--7--7-5--2-- let it ring -|
E|--222-3--3-3--2--2-2--5--5-3--|--222-3--3-3--2--2-2--5--5-3—-0----------------|




INTRO:Guitar (clean) 2:14
e|---------------------|---------------------|---------------------|---------------------|
B|---------------------|---------------------|---------------------|---------------------|
G|------0-----0---0----|------0-----0---0----|------0-----0---0----|------0-----0---0----|
D|-----2-2---2---2-----|-----2-2---2---2-----|-----2-2---2---2-----|-----2-2---2---2-----|
A|----2---2-2---2------|----2---2-2---2------|----2---2-2---2------|----2---2-2---2------|
E|---0-----------------|---0-----------------|---0-----------------|---0-----------------|

e|---------------------|---------------------|---------------------|---------------------|
B|---------------------|---------------------|---------------------|---------------------|
G|------0-----0---0----|------0-----0---0----|------0-----0---0----|------0-----0---0----|
D|-----2-2---2---2-----|-----2-2---2---2-----|-----2-2---2---2-----|-----2-2---2---2-----|
A|----2---2-2---2------|----2---2-2---2------|----2---2-2---2------|----2---2-2---2------|
E|---0-----------------|---0-----------------|---0-----------------|---0-----------------|

e|---------------------|---------------------|---------------------|---------------------|
B|---------------------|---------------------|---------------------|---------------------|
G|------0-----0---0----|------0-----0---0----|------0-----0---0----|------0-----0---0----|
D|-----2-2---2---2-----|-----2-2---2---2-----|-----2-2---2---2-----|-----2-2---2---2-----|
A|----2---2-2---2------|----2---2-2---2------|----2---2-2---2------|----2---2-2---2------|
E|---0-----------------|---0-----------------|---0-----------------|---0-----------------|

e|---------------------|
B|---------------------|
G|------0--------------|
D|-----2-2-------------|
A|----2---2------------|
E|---0-----------------|

PRECHORUS: Guitar(Dist)
e|------------------------------|------------------------------|
B|------------------------------|------------------------------|
G|------------------------------|------------------------------|
D|--444-5--5-5--4--4-4--7--7-5--|--444-5--5-5--4--4-4--7--7-5--|
A|--444-5--5-5--4--4-4--7--7-5--|--444-5--5-5--4--4-4--7--7-5--|
E|--222-3--3-3--2--2-2--5--5-3--|--222-3--3-3--2--2-2--5--5-3--|

e|------------------------------|------------------------------|
B|------------------------------|------------------------------|
G|------------------------------|------------------------------|
D|--444-5--5-5--4--4-4--7--7-5--|--444-5--5-5--4--4-4--7--7-5--|
A|--444-5--5-5--4--4-4--7--7-5--|--444-5--5-5--4--4-4--7--7-5--|
E|--222-3--3-3--2--2-2--5--5-3--|--222-3--3-3--2--2-2--5--5-3--|

e|------------------------------|------------------------------|
B|------------------------------|------------------------------|
G|------------------------------|------------------------------|
D|--444-5--5-5--4--4-4--7--7-5--|--444-5--5-5--4--4-4--7--7-5--|
A|--444-5--5-5--4--4-4--7--7-5--|--444-5--5-5--4--4-4--7--7-5--|
E|--222-3--3-3--2--2-2--5--5-3--|--222-3--3-3--2--2-2--5--5-3--|

e|------------------------------|------------------------------|
B|------------------------------|------------------------------|
G|------------------------------|------------------------------|
D|--444-5--5-5--4--4-4--7--7-5--|--444-5--5-5--4--4-4----------|
A|--444-5--5-5--4--4-4--7--7-5--|--444-5--5-5--4--4-4----------|
E|--222-3--3-3--2--2-2--5--5-3--|--222-3--3-3--2--2-2--2/14/2--|

e|---------------------|--------------------|--------------------|--------------------|   
B|---------------------|--------------------|--------------------|--------------------|
G|------4-4-3-3-2-2----|-----4-4-3-3-2-2----|-----4-4-3-3-2-2----|-----4-4-3-3-2-2----|
D|--222-4-4-3-3-2-2-5--|-222-4-4-3-3-2-2-5--|-222-4-4-3-3-2-2-5--|-222-4-4-3-3-2-2-5--|
A|--222-2-2-1-1-0-0-5--|-222-2-2-1-1-0-0-5--|-222-2-2-1-1-0-0-5--|-222-2-2-1-1-0-0-5--|
E|--000-------------3--|-000-------------3--|-000-------------3--|-000-------------3--|

e|------------------------|
B|------------------------|
G|------------------------|
D|---2----- let it ring --|
A|---2--------------------|
E|---0--------------------|

http://himeyuriofficial.web.fc2.com/index.html

Добавлено: 01.06.2012
Другие материалы по этой песне:
  • Аккорды и текст

Страница создана 01.06.2012
http://primanota.ru/himeyuri/side-effect-chords.htm
Привет, Гость.
Предлагаем пройти революционный курс по гитаре.
Подарок от PrimaNota.Ru, забирай!