PrimaNota.ru - самый крупный в мире бесплатный архив песенных текстов, аккордов, табулатур и нот


Himeringo - Yotsuya-san Ni Yoroshiku - таба, видео

Регистрация Запомнить меня
Войти через:  Facebook Google Twitter Vk Yandex Mail.ru

Himeringo - Yotsuya-san Ni Yoroshiku - таба, видео

Печатать
Просмотров: 173
-------------------------------------------------------------------------------
                             Yotsuya-san ni Yoroshiku - Himeringo
-------------------------------------------------------------------------------
Tabbed by: lettucefase
E-mail:

Tuning: E Standard



Intro runs for 10 bars. Guitar 2 starts at bar 6. 

Intro
  Guitar 1

e|---------------------------------------------------------------------------|
B|---------------------------------------------------------------------------|
G|---------6--4-----6--4-----6-----6--4-----6--4-----6-----------------------|
D|------4--------4--------4--------------------------------------------------|
A|------------------------------5--------5--------5--------------------------|
E|---------------------------------------------------------------------------|

e|---------------------------------------------------------------------------|
B|---------------------------------------------------------------------------|
G|---------6--4-----6--4-----6-----6--4-----6--4-----6-----------------------|
D|---------------------------------------------------------------------------|
A|------7--------7--------7-----8--------8--------8--------------------------|
E|---------------------------------------------------------------------------|

x2
                                a
e|---------------------------------------------------------------------------|
B|---------------7--------------7--------------------------------------------|
G|---------4--6-----6--4-----6--6--------------------------------------------|
D|------4-----------------4-----4--------------------------------------------|
A|---------------------------------------------------------------------------|
E|---------------------------------------------------------------------------|

Intro
  Guitar 2

e|---------------------------------------------------------------------------|
B|---------7--7--7--7--7--7--7--7--9--9--9--9--9--9--9--9--------------------|
G|---------------------------------------------------------------------------|
D|---------------------------------------------------------------------------|
A|---------------------------------------------------------------------------|
E|---------------------------------------------------------------------------|

e|---------------------------------------------------------------------------|
B|--------12--12--12--12--12--12--12--12--7--7--9--9--10--10--9--9-----------|
G|---------------------------------------------------------------------------|
D|---------------------------------------------------------------------------|
A|---------------------------------------------------------------------------|
E|---------------------------------------------------------------------------|
              a
e|------------6--------------------------------------------------------------|
B|------------7--------------------------------------------------------------|
G|------------6--------------------------------------------------------------|
D|---------------------------------------------------------------------------|
A|---------------------------------------------------------------------------|
E|---------------------------------------------------------------------------|


Main Riff
  Guitar 1

e|---------------------------------------------------------------------------|
B|-----3---2-5---3-6---6-8-6-5-6-3---3-5--3-5-6--10--6--5--------------------|
G|---------------------------------------------------------------------------|
D|---------------------------------------------------------------------------|
A|---------------------------------------------------------------------------|
E|---------------------------------------------------------------------------|
                                              
e|---------------------------------------------------------------------------|
B|-----3---2-5---3-6---6-8-6-5-6-3---3-2--0-2-3~~----------------------------|
G|---------------------------------------------------------------------------|
D|---------------------------------------------------------------------------|
A|---------------------------------------------------------------------------|
E|---------------------------------------------------------------------------|


Main Riff 
  Guitar 2

e|---------------------------------------------------------------------------|
B|------6---5-5-5--6--6-x8--x6-x5--6---5-5-5--5--6--6-6-6-6------------------|
G|---------------------------------------------------------------------------|
D|---------------------------------------------------------------------------|
A|---------------------------------------------------------------------------|
E|---------------------------------------------------------------------------|

x2

Verse

e|----------------------------------------3----------------------------------|
B|-----------6----------5----------3-----------6----5------------------------|
G|---------7----------5----------3----3------3----3--------------------------|
D|------7----------5----------3----------------------------------------------|
A|---------------------------------------------------------------------------|
E|---------------------------------------------------------------------------|

Solo

e|---------------------------------------------------------------------------|
B|------5s6--5-h6-p5-3-2--3--2-3-5---5-6-11--11--10-11--10--8-10--11p10p8-8--|
G|---------------------------------------------------------------------------|
D|---------------------------------------------------------------------------|
A|---------------------------------------------------------------------------|
E|---------------------------------------------------------------------------|

e|---------------------------------------------------------------------------|
B|------5s6--6-6-5-6--8--8br--6--5-6--3--2-3-5-5br--3~~----------------------|
G|---------------------------------------------------------------------------|
D|---------------------------------------------------------------------------|
A|---------------------------------------------------------------------------|
E|---------------------------------------------------------------------------|






************************************
| a   arpeggio down
| /   slide up
| \   slide down
| h   hammer-on
| p   pull-off
| ~   vibrato
| +   harmonic
| x   Mute note
| b   Bend
| pb  Pre-bend
| br  Bend release
| pbr Pre-bend release
| brb Bend release bend

************************************
Добавлено: 31.12.2015
Другие материалы по этой песне:
  • Аккорды и текст

Страница создана 31.12.2015
http://primanota.ru/himeringo/yotsuya-san-ni-yoroshiku-chords.htm
Привет, Гость.
Предлагаем пройти революционный курс по гитаре.
Подарок от PrimaNota.Ru, забирай!