PrimaNota.ru - самый крупный в мире бесплатный архив песенных текстов, аккордов, табулатур и нот


Him - Sweet 666 - текст песни, бас-таба, видео

Регистрация Запомнить меня
Войти через:  Facebook Google Twitter Vk Yandex Mail.ru

Him - Sweet 666 - текст песни, бас-таба, видео

Печатать
Просмотров: 236
Band Name:HIM
Album Name:RazorBlade Romance
Song Title: Sweet 666 a.k.a  I love you (prelude to tragedy)
Year album was made:2000
Tabbed by: WindShrieker@aol

Intro:
G:-------------
D:-------------
A:-5-4-0-------
E:-------------

G:-------------------------------------------------------
D:----------5-5-5-5-5-5-4-4-4-4----------5-5-5-5-4-4-4-4-
A:-2-2-2-2-2-------------------2-2-2-2-2-----------------
E:-------------------------------------------------------

G:----------------------
D:----------------------
A:-2-2-2-2-2-0----------
E:-------------3--------

Verse:

G:--------------------------------
D:--------------------------------
A:------------5-5-5-5-5-----------
E:-3-3-3-3-3-3----------2-2-2-2-2-

Times 2 Times in the verse, play this

G:---------
D:---------
A:-5-3-0---
E:-------4-

Chorus

G:------------------------------
D:------------------------------
A:-2-2-2-2-2-2-5-5-5------------
E:-------------------5-5-5-3-3-3

Times 2 Times in the chorus, play this

G:-----------
D:-----------
A:-5-3-0-----
E:-------4---

Intro

Chorus2

G:--------------------------------------------------
D:--------------------------------------------------
A:-4-4-4-4-4-4-7-7-7-7-7-7--------------------------
E:-------------------------7-7-7-7-5-5-5-5-5-7-7-7-7

Ending On:

G:---------------------------
D:---------------------------
A:---------------------------
E:-7-7-7-7-5-5-5-5-5-7-7-7-7-  A couple of times then:

G:---------
D:---------
A:-8-7-2-4-
E:---------

I have 2 admite that i didn't this tab all by myself, i took the intro
from another tab, then i listen to the rest and done it.

This tab is only readable to the biggest fans of HIM (his infernal
majesty) like me.

thanx, corrections/suggestion/comments: WindShrieker@aol
LONG LIVE HIM
     
Добавлено: 16.10.2013
Другие материалы по этой песне:
  • Аккорды и текст

Страница создана 16.10.2013
http://primanota.ru/him/sweet-666-chords.htm
Привет, Гость.
Предлагаем пройти революционный курс по гитаре.
Подарок от PrimaNota.Ru, забирай!