PrimaNota.ru - самый крупный в мире бесплатный архив песенных текстов, аккордов, табулатур и нот


Him - Greatest Love Songs 666 - таба, видео

Регистрация Запомнить меня
Войти через:  Facebook Google Twitter Vk Yandex Mail.ru

Him - Greatest Love Songs 666 - таба, видео

Печатать
Просмотров: 147
Submitted by: TheMutts (halo2k@forerunners.org)

Note: I would like to thanks to authors for these tabs. NOTE: I (TheMutts)
do not take credit at all for these tabs. I simply compiled the most accurate
tabs and put this album together so you can find all the songs in here.


HIM - Greatest Love Songs 666

1. Your Sweet 666        
2. Wicked Game             
3. It's All Tears (Drown In This Love)        
4. When Love & Death Embrace        
5. Beginning Of The End        
6. Don't Fear The Reaper        
7. For You  








1. Your Sweet 666    

Legend:	 
          \ = Slide Up                     Tuning:  E-A-D-G-B-E
	 / = Slide Down                            (Standard)
	 ~ = Vibrato
	 b = Bend
	 r = Relase


INTRO
                                                           
E||--------------------|-------------------|--------------------|
B||--------------------|-------------------|--------------------|
G||--------------------|-------------------|--------------------|
D||--------------------|--4~---------------|--------------------|
A||-----------5\-4--0--|--2~---------------|--5--------4--------|
E||--------------------|-------------------|--3--------2--------|


                                                             
|-------------------|--------------------|-------------------|
|-------------------|--------------------|-------------------|
|-------------------|--------------------|-------------------|
|--4----------------|--------------------|--4----------------|
|--2----------------|--5--------4--------|--2----------------|
|-------------------|--3--------2--------|-------------------|


                                                                    
|-------------------|-----------------|------------------------|
|-------------------|-----------------|------------------------|
|-------------------|-----------------|--4--4--4--4--4--2------|
|-------------------|--4--------------|--4--4--4--4--4--2------|     
|--5-------4--------|--2--------------|--2--2--2--2--2--0------|
|--3-------2--------|-----------------|------------------------|

 
 
VERSE 1
  
                                                    
|---------------------------|--------------------------|
|---------------------------|--------------------------|
|---------------------------|--------------------------|
|---------------------------|--7--7--7--7--7--7--7--7--|
|--5--5--5--5--5--5--5--5---|--5--5--5--5--5--5--5--5--|
|--3--3--3--3--3--3--3--3---|--------------------------|


		                                                         
|--------------------------|--------------------------|
|--------------------------|--------------------------|
|--------------------------|--------------------------|
|--------------------------|--------------------------|
|--4--4--4--4--4--4--4--4--|--4--4--4--4--4--4--4--4--|
|--2--2--2--2--2--2--2--2--|--2--2--2--2--2--2--2--2--|


                                                      
|---------------------------|--------------------------|
|---------------------------|--------------------------|
|---------------------------|--------------------------|
|---------------------------|--4--4--4--4--4--4--4--4--|
|--5--5--5--5--5--5--5--5---|--2--2--2--2--2--2--2--2--|
|--3--3--3--3--3--3--3--3---|--------------------------|


                                                                                
|--------------------------|--------------------------|
|--------------------------|--------------------------|
|--------------------------|--------------------------|
|--------------------------|--------------------------|
|--4--4--4--4--4--4--4--4--|--4--4--4--4\-5/-4--------|
|--2--2--2--2--2--2--2--2--|--2--2--2-----------5--3~-|


                                                      
|----------------------------|--------------------------|
|----------------------------|--------------------------|
|----------------------------|--------------------------|
|----------------------------|--7--7--7--7--7--7--7--7--|
|---5--5--5--5--5--5--5--5---|--5--5--5--5--5--5--5--5--|
|---3--3--3--3--3--3--3--3---|--------------------------|


                                                                                
|---------------------------|--------------------------|
|---------------------------|--------------------------|
|---------------------------|--------------------------|
|---------------------------|--------------------------|
|---4--4--4--4--4--4--4--4--|--4--4--4--4--4--4--4--4--|
|---2--2--2--2--2--2--2--2--|--2--2--2--2--2--2--2--2--|


                                                                                
|---------------------------|------------------------|--------|---------|----------|
|---------------------------|------------------------|--------|---------|----------|
|---------------------------|------------------------|--------|---------|----------|
|---------------------------|--4--4--4--4--4--4--4---|--------|---4~----|----7~----|
|--5--5--5--5--5--5--5--5--|--2--2--2--2--2--2--2----|---4~---|---4~----|----7~----|
|--3--3--3--3--3--3--3--3--|-------------------------|---2~---|---2~----|----5~----|
                     


CHORUS 1

E||--------------------------|-------------------------|
B||--------------------------|-------------------------|
G||*-------------------------|-------------------------|
D||*----------4-----5b-5r-4--|----------4-----5b-5r-4--|
A||---2~---2-----2-----------|--2~---2-----2-----------|
E||--------------------------|-------------------------|

                                                                             
|-------------------------|-------------------------|
|-------------------------|-------------------------|
|-------------------------|-------------------------|
|----------4-----5b-5r-4--|----------4-----5b-5r-4--|
|--5~---5-----5-----------|-------------------------|
|-------------------------|--5~---5-----5-----------|

                                                                                
|---------------------|----------------------|---------------------|
|---------------------|----------------------|---------------------|
|---------------------|----------------------|---------------------|
|--------4---5b-5r-4--|--------4----5b-5r-4--|--------4---5b-5r-4--|
|---------------------|----------------------|---------------------|
|--3~--3---3----------|--3~--3---3-----------|--3~--3---3----------|

                                                             
|----------------------||
|----------------------||
|---------------------*||
|--------4------------*|| 
|--0---0---0\--5-4-----||
|------------------5---||




                                                            
|------------|---------------|-------------------|
|------------|---------------|-------------------|
|------------|---------------|-------------------|
|--------4---|---------------|--------4----------|
|--------2---|-----5----4----|--------2----------|
|------------|-----3----2----|-------------------|

|--------------------|-------------------|--------------------|
|--------------------|-------------------|--------------------|
|--------------------|-------------------|--------------------|
|--------------------|--4----------------|--------------------|
|--5--------4--------|--2----------------|--5--------4--------|
|--3--------2--------|-------------------|--3--------2--------|

                                                
|------------------|-------------------------|
|------------------|-------------------------|
|------------------|--4--4--4--4--4--2-------|
|--4---------------|--4--4--4--4--4--2-------|
|--2---------------|--2--2--2--2--2--0-------|
|------------------|-------------------------|

   
VERSE 2
  
                                                  
|---------------------------|---------------------------|
|---------------------------|---------------------------|
|---------------------------|---------------------------|
|---------------------------|--7--7--7--7--7--7--7--7---|
|--5--5--5--5--5--5--5--5---|--5--5--5--5--5--5--5--5---|
|--3--3--3--3--3--3--3--3---|---------------------------|


                                                     
|---------------------------|---------------------------|
|---------------------------|---------------------------|
|---------------------------|---------------------------|
|---------------------------|---------------------------|
|--4--4--4--4--4--4--4--4---|--4--4--4--4--4--4--4--4---|
|--2--2--2--2--2--2--2--2---|--2--2--2--2--2--2--2--2---|


                                                      
|---------------------------|---------------------------|
|---------------------------|---------------------------|
|---------------------------|---------------------------|
|---------------------------|--4--4--4--4--4--4--4--4---|
|--5--5--5--5--5--5--5--5---|--2--2--2--2--2--2--2--2---|
|--3--3--3--3--3--3--3--3---|---------------------------|


                                                                                 
|---------------------------|----------------------------|
|---------------------------|----------------------------|
|---------------------------|----------------------------|
|---------------------------|----------------------------|
|--4--4--4--4--4--4--4--4---|--4--4--4--4\-5/-4----------|
|--2--2--2--2--2--2--2--2---|--2--2--2-----------5--3~---|


                                                      
|-----------------------------|---------------------------|
|-----------------------------|---------------------------|
|-----------------------------|---------------------------|
|-----------------------------|--7--7--7--7--7--7--7--7---|
|---5--5--5--5--5--5--5--5----|--5--5--5--5--5--5--5--5---|
|---3--3--3--3--3--3--3--3----|---------------------------|


                                                                               
|-----------------------------|--------------------------|
|-----------------------------|--------------------------|
|-----------------------------|--------------------------|
|-----------------------------|--------------------------|
|---4--4--4--4--4--4--4--4----|--4--4--4--4--4--4--4--4--|
|---2--2--2--2--2--2--2--2----|--2--2--2--2--2--2--2--2--|


                                                                                
|---------------------------|------------------------|--------|---------|----------|
|---------------------------|------------------------|--------|---------|----------|
|---------------------------|------------------------|--------|---------|----------|
|---------------------------|--4--4--4--4--4--4--4---|--------|---4~----|----7~----|
|--5--5--5--5--5--5--5--5---|--2--2--2--2--2--2--2---|---4~---|---4~----|----7~----|
|--3--3--3--3--3--3--3--3---|------------------------|---2~---|---2~----|----5~----|
                     
 

CHORUS 1

E||--------------------------|-------------------------|
B||--------------------------|-------------------------|
G||*-------------------------|-------------------------|
D||*----------4-----5b-5r-4--|----------4-----5b-5r-4--|
A||---2~---2-----2-----------|--2~---2-----2-----------|
E||--------------------------|-------------------------|

                                                                             
|-------------------------|-------------------------|
|-------------------------|-------------------------|
|-------------------------|-------------------------|
|----------4-----5b-5r-4--|----------4-----5b-5r-4--|
|--5~---5-----5-----------|-------------------------|
|-------------------------|--5~---5-----5-----------|

                                                                                
|---------------------|----------------------|---------------------|
|---------------------|----------------------|---------------------|
|---------------------|----------------------|---------------------|
|--------4---5b-5r-4--|--------4----5b-5r-4--|--------4---5b-5r-4--|
|---------------------|----------------------|---------------------|
|--3~--3---3----------|--3~--3---3-----------|--3~--3---3----------|

                                                             
|----------------------||
|----------------------||
|---------------------*||
|--------4------------*|| 
|--0---0---0\--5-4-----||
|------------------5---||




                                                             
|------------|---------------|-------------------|
|------------|---------------|-------------------|
|------------|---------------|-------------------|
|--------4---|---------------|--------4----------|
|--------2---|-----5----4----|--------2----------|
|------------|-----3----2----|-------------------|

|--------------------|-------------------|--------------------|
|--------------------|-------------------|--------------------|
|--------------------|-------------------|--------------------|
|--------------------|--4----------------|--------------------|
|--5--------4--------|--2----------------|--5--------4--------|
|--3--------2--------|-------------------|--3--------2--------|

                                                             
|------------|---------------|			   |-----|-----|
|------------|---------------|			   |-----|-----|
|------------|---------------|	    	            |-----|-----|
|--------4---|---------------|	 Only Voice	   |--4--|--4--|
|--------2---|-----5----4----|	      		   |--4--|--4--|
|------------|-----3----2----|			   |--2--|--2--|




CHORUS 2

E||--------------------------|-------------------------|
B||--------------------------|-------------------------|
G||*----------------2b-2r-1--|----------1-----2b-2r-1--|
D||*----------6--------------|-------------------------|
A||---4~---4-----4-----------|--4~---4-----4-----------|
E||--------------------------|-------------------------|


                                                                              
|-----------------------|-------------------|--------------------|
|-----------------------|-------------------|--------------------|
|---------1-----2b-2r-1-|-------1---2b-2r-1-|-------1---2b-2r-1--|
|--2~--2-----2----------|-------------------|--------------------|
|-----------------------|-2~--2---2---------|-0~--0---0----------|
|-----------------------|-------------------|--------------------|


       From Start  <- 3x                                                    
|----------------------||-------------------|--------------------|
|----------------------||-------------------|--------------------|
|--------1------------*||-----------2b-2r-1-|-------1---2b-2r-1--|
|-------------2/-1----*||-------6-----------|--------------------|
|--2--2----2--------2--||-4~--4---4---------|-4~--4---4----------|
|----------------------||-------------------|--------------------|


                                                      
|-------------------------||--------------------------|
|-------------------------||--------------------------|
|----------1-----2b-2r-1--||*----------1-----2b-2r-1--|
|--2~---2-----2-----------||*-------------------------|
|-------------------------||---2~---2-----2-----------|
|-------------------------||--------------------------|


 +--Only Below <- 7x--+                                  
|----------------------||---------------------|----------------||
|----------------------||---------------------|----------------||
|--------1---2b-2r-1--*||------1--------------|--6/------------||
|---------------------*||-----------2/-1------|--6/------------||
|--0~--0---0-----------||-2--2---2--------2---|--4/------------||
|----------------------||---------------------|----------------||


|-------------------|
         ORDER
|-------------------|
   Intro 1
   Verse 1
   Chorus 1 (x2)
   Intro 1
   Verse 1
   Chorus 1 (x2)
   Bridge
   Chorus 2
|-------------------|










    
2. Wicked Game     

The main riff:(intro&verse)

B5 / A5 / E5
(Bm / A / E )

e------------------------------------------------- -----------------
b---.-.-.-.-.-.-.---.-.-.-.-.-.-.----------------- -----------------
g-4-4-4-4-4-4-4-4-2-2-2-2-2-2-2-2---.-.-.-.-----2- --1-.-.-.-.---.-.
D-4-4-4-4-4-4-4-4-2-2-2-2-2-2-2-2-2-2-2-2-2-2/4--- 4-2-2-2-2-2-2-2-2
A-2-2-2-2-2-2-2-2-0-0-0-0-0-0-0-0-2-2-2-2-2------- ----2-2-2-2-2-2-2
E---------------------------------0-0-0-0-0------- ----0-0-0-0-0-0-0
(All of the chords with dots above them are palm-muted)
(I
Добавлено: 02.08.2013
Другие материалы по этой песне:
  • Аккорды и текст

Страница создана 02.08.2013
http://primanota.ru/him/greatest-love-songs-666-chords.htm
Привет, Гость.
Предлагаем пройти революционный курс по гитаре.
Подарок от PrimaNota.Ru, забирай!