PrimaNota.ru - самый крупный в мире бесплатный архив песенных текстов, аккордов, табулатур и нот


Him - Beyond Redemption - аккорды и текст, таба, бас-таба, видео

Регистрация Запомнить меня
Войти через:  Facebook Google Twitter Vk Yandex Mail.ru

Him - Beyond Redemption - аккорды и текст, таба, бас-таба, видео

Печатать
Просмотров: 419
Уроки эстрадного вокала в Санкт-Петербурге
Авторы музыки: Ville Valo
Авторы текста: Ville Valo
Beyond Redemption
Him
		   HIM
LOVE METAL
BEYOND REDEMPTION

By: Verónica Romero (sculder_tn1@hotmail.com)

Tune down 1/2 step (D# G# C# F# A# d#)

INTRO

-------2-|-------5-3-2-
---3-----|---3---------
-4---4---|-4---4-------
---------|-------------
---------|-------------
---------|-------------

Guitar 1

---------|-------------|---------|----------------4-
---------|-------------|---------|----------------5-
-------1-|-------4-2-1-|-------1-|---------1------6-
---2-----|---2---------|---2-----|---2---4---2-1--6-
-4---4---|-4---4-------|-4---4---|-4---4----------4-
---------|-------------|---------|------------------

Guitar 2

-----------------------------------------------------------------
-----------------------------------------------------------------
-6-6-6-6-6-6-6-6-------------------------------------------------
-6-6-6-6-6-6-6-6-2-2-2-2-2-2-2-2-4-4-4-4-4-4-4-4-7-7-7-7-9-9-9-9-
-4-4-4-4-4-4-4-4-2-2-2-2-2-2-2-2-4-4-4-4-4-4-4-4-7-7-7-7-9-9-9-9-
-----------------0-0-0-0-0-0-0-0-2-2-2-2-2-2-2-2-5-5-5-5-7-7-7-7-
 ------------------------------P.M------------------------------

------------------------------------------------------------------4-
------------------------------------------------------------------5-
-6-6-6-6-6-6-6-6--------------------------------------------------6-
-6-6-6-6-6-6-6-6-2-2-2-2-2-2-2-2-4-4-4-4-4-4-4-4-7-7-7-7-9-9-9-9--6-
-4-4-4-4-4-4-4-4-2-2-2-2-2-2-2-2-4-4-4-4-4-4-4-4-7-7-7-7-9-9-9-9--4-
-----------------0-0-0-0-0-0-0-0-2-2-2-2-2-2-2-2-5-5-5-5-7-7-7-7----
 ------------------------------P.M------------------------------

           Oh I see your scars        I know where they from          G sensually carved
------------              ------------                   ------------
------------              ------------                   ------------
------------              ------------                   ------------
--------4-6-              --------9-6-                   --------4-6-
-7--9\6-2-4-              -7--9\6-7-4-                   -7--9\6-2-4-
-5--7\4-----              -5--7\4-----                   -5--7\4-----

and bleeding until you're dead and
       ----------------------------
       ----------------------------
       ----------------------------
       ----------------------------
       -4--------------6----7----9-
       -2--------------4----5----7-

gone       I've seen it all before         beauty and splendour torn         It's when heaven
------------                   ------------                     ------------
------------                   ------------                     ------------
------------                   ------------                     ------------
--------4-6-                   --------9-6-                     --------4-6-
-7--9\6-2-4-                   -7--9\6-7-4-                     -7--9\6-2-4-
-5--7\4-----                   -5--7\4-----                     -5--7\4-----

turns to black and hell to white
---------------------
---------------------
---------------------
---------------------
-4--------------6--7-
-2--------------4--5-

Right's so wrong and wrong's so right           Now
-----------------------                         ---
-----------------------                         ---
-----------------------                         ---
-----------------------                         ---
-4----------------6--7-                         -9-
-2----------------4--5-                         -7-

CORO

-4-4--------------------|-4-4--------------------
-5-5--------------------|-5-5--------------------
-6-6--------------------|-6-6--------------------
-6-6--6-7-7-x-7/9-9-9-2-|-6-6--6-7-7-x-7/9-9-9-2-
-4-4--6-7-7-x-7/9-9-9-2-|-4-4--6-7-7-x-7/9-9-9-2-
------4-5-5-x-5/7-7-7-0-|------4-5-5-x-5/7-7-7-0-

--------------------------------
--------------------------------
-6------------------------------
-6----6----7--x-x-x-9-9-9-2-2-2-
-4----6----7--x-x-x-9-9-9-2-2-2-
------4----5--x-x-x-7-7-7-0-0-0-

Guitar 1

---------|-------------|---------|----------------4-
---------|-------------|---------|----------------5-
-------1-|-------4-2-1-|-------1-|---------1------6-
---2-----|---2---------|---2-----|---2---4---2-1--6-
-4---4---|-4---4-------|-4---4---|-4---4----------4-
---------|-------------|---------|------------------

Guitar 2

-----------------------------------------------------------------
-----------------------------------------------------------------
-6-6-6-6-6-6-6-6-------------------------------------------------
-6-6-6-6-6-6-6-6-2-2-2-2-2-2-2-2-4-4-4-4-4-4-4-4-7-7-7-7-9-9-9-9-
-4-4-4-4-4-4-4-4-2-2-2-2-2-2-2-2-4-4-4-4-4-4-4-4-7-7-7-7-9-9-9-9-
-----------------0-0-0-0-0-0-0-0-2-2-2-2-2-2-2-2-5-5-5-5-7-7-7-7-
 ------------------------------P.M------------------------------

------------------------------------------------------------------4-
------------------------------------------------------------------5-
-6-6-6-6-6-6-6-6--------------------------------------------------6-
-6-6-6-6-6-6-6-6-2-2-2-2-2-2-2-2-4-4-4-4-4-4-4-4-7-7-7-7-9-9-9-9--6-
-4-4-4-4-4-4-4-4-2-2-2-2-2-2-2-2-4-4-4-4-4-4-4-4-7-7-7-7-9-9-9-9--4-
-----------------0-0-0-0-0-0-0-0-2-2-2-2-2-2-2-2-5-5-5-5-7-7-7-7----
 ------------------------------P.M------------------------------

           Oh I see you crawl        you can barely walk          And arms wide open
------------              ------------               ------------
------------              ------------               ------------
------------              ------------               ------------
--------4-6-              --------9-6-               --------4-6-
-7--9\6-2-4-              -7--9\6-7-4-               -7--9\6-2-4-
-5--7\4-----              -5--7\4-----               -5--7\4-----

you keep on  begging for
--------------------
--------------------
--------------------
--------------------
-4----------6-7---9-
-2----------4-5---7-

more       I've been there before       knocking on the same door         It's when hate
------------                 ------------                    ------------
------------                 ------------                    ------------
------------                 ------------                    ------------
--------4-6-                 --------9-6-                    --------4-6-
-7--9\6-2-4-                 -7--9\6-7-4-                    -7--9\6-2-4-
-5--7\4-----                 -5--7\4-----                    -5--7\4-----

turns to love and love to hate
---------------------
---------------------
---------------------
---------------------
-4--------------6--7-
-2--------------4--5-

Faith to doubt and doubt to faith           Now
----------------------                      ---
----------------------                      ---
----------------------                      ---
----------------------                      ---
-4---------------6--7-                      -9-
-2---------------4--5-                      -7-

CHORUS

-4-4--------------------|-4-4--------------------
-5-5--------------------|-5-5--------------------
-6-6--------------------|-6-6--------------------
-6-6--6-7-7-x-7/9-9-9-2-|-6-6--6-7-7-x-7/9-9-9-2-
-4-4--6-7-7-x-7/9-9-9-2-|-4-4--6-7-7-x-7/9-9-9-2-
------4-5-5-x-5/7-7-7-0-|------4-5-5-x-5/7-7-7-0-

--------------------------------
--------------------------------
-6------------------------------
-6----6----7--x-x-x-9-9-9-2-2-2-
-4----6----7--x-x-x-9-9-9-2-2-2-
------4----5--x-x-x-7-7-7-0-0-0-

----------------------------------------------------------------------------------
----------------------------------------------------------------------------------
-9-9-9-9--9-9-9-11-11-11-11--11-11-11-13-13-13-13--13-13-13-14-14-14-14--14-14-14-
-x-x-x-x--x-x-x--x--x--x--x---x--x--x--x--x--x--x---x--x--x--x--x--x--x---x--x--x-
-7-7-7-7--7-7-7--9--9--9--9---9--9--9-11-11-11-11--11-11-11-12-12-12-12--12-12-12-
----------------------------------------------------------------------------------

----------------------------------------------------------------------------------
----------------------------------------------------------------------------------
-9-9-9-9--9-9-9-11-11-11-11--11-11-11-13-13-13-13--13-13-13-14-14-14-14--14-14-14-
-x-x-x-x--x-x-x--x--x--x--x---x--x--x--x--x--x--x---x--x--x--x--x--x--x---x--x--x-
-7-7-7-7--7-7-7--9--9--9--9---9--9--9-11-11-11-11--11-11-11-12-12-12-12--12-12-12-
----------------------------------------------------------------------------------

----------------------------------------------------------------------------------
----------------------------------------------------------------------------------
-9-9-9-9--9-9-9-11-11-11-11--11-11-11-13-13-13-13--13-13-13-14-14-14-14--14-14-14-
-x-x-x-x--x-x-x--x--x--x--x---x--x--x--x--x--x--x---x--x--x--x--x--x--x---x--x--x-
-7-7-7-7--7-7-7--9--9--9--9---9--9--9-11-11-11-11--11-11-11-12-12-12-12--12-12-12-
----------------------------------------------------------------------------------

Guitar 1

---------------------------------------------------------------------------
---------------------------------------------------------------------------
-13-13-13-13--13-13-13-11-11-11-11--11-11-11-9-9-9-9--9-9-9-8-8-8-8--8-8-8-
--x--x--x--x---x--x--x--x--x--x--x---x--x--x-x-x-x-x--x-x-x-x-x-x-x--x-x-x-
-11-11-11-11--11-11-11--9--9--9--9---9--9--9-7-7-7-7--7-7-7-6-6-6-6--6-6-6-
---------------------------------------------------------------------------

Guitar 2

-----------------------------------------------------------------------------------------
-----------------------------------------------------------------------------------------
-13-13-13-13--13-13-13-14-14-14-14--14-14-14-15-15-15-15--15-15-15-16-16-16-16--16-16-16-
--x--x--x--x---x--x--x--x--x--x--x---x--x--x--x--x--x--x---x--x--x--x--x--x--x---x--x--x-
-11-11-11-11--11-11-11-12-12-12-12--12-12-12-13-13-13-13--13-13-13-14-14-14-14--14-14-14-
-----------------------------------------------------------------------------------------

SOLO

----------------------------7----------------------------------------------------
-9-9-9-9-9-9-9--9-9-7---7/9---9p7---7-7--------------------------7/9----9-9-12---
-9-9-9-9-9-9-9--9-9---9-----------9-----6-6h9-8-6-9-8b-6-8b----9---------------9-
------------------------------------------------------------11-------11----------
---------------------------------------------------------------------------------
---------------------------------------------------------------------------------

--------------9------------------------12-12-12-12-12-12\9---7---7-7/9-
-----------12----12----14----14-14/17----------------------9---9-------
------9-11----------13----13-------------------------------------------
-9-11------------------------------------------------------------------
-----------------------------------------------------------------------
-----------------------------------------------------------------------

-9-12-12/16-14-12-14-12-11-12-11-9----9-9/12-9----9----------------------
-----------------------------------12----------12---9-7---7h9-7-9b-7-----
--------------------------------------------------------9------------9-6-
-------------------------------------------------------------------------
-------------------------------------------------------------------------
-------------------------------------------------------------------------

Feel it...
-4---5---4---5---4---4---5-
-5---5---5---5---5---4---5-
-6---6---6---6---6---4---6-
-6---7---6---7---6---6---7-
-4---7---4---7---4---6---7-
-----5-------5-------4---5-

CHORUS

-4-4--------------------|-4-4--------------------
-5-5--------------------|-5-5--------------------
-6-6--------------------|-6-6--------------------
-6-6--6-7-7-x-7/9-9-9-2-|-6-6--6-7-7-x-7/9-9-9-2-
-4-4--6-7-7-x-7/9-9-9-2-|-4-4--6-7-7-x-7/9-9-9-2-
------4-5-5-x-5/7-7-7-0-|------4-5-5-x-5/7-7-7-0-

--------------------------------
--------------------------------
-6------------------------------
-6----6----7--x-x-x-9-9-9-2-2-2-
-4----6----7--x-x-x-9-9-9-2-2-2-
------4----5--x-x-x-7-7-7-0-0-0-

Guitar 1

---------|-------------|---------|----------------4-
---------|-------------|---------|----------------5-
-------1-|-------4-2-1-|-------1-|---------1------6-
---2-----|---2---------|---2-----|---2---4---2-1--6-
-4---4---|-4---4-------|-4---4---|-4---4----------4-
---------|-------------|---------|------------------

Guitar 2

-----------------------------------------------------------------
-----------------------------------------------------------------
-6-6-6-6-6-6-6-6-------------------------------------------------
-6-6-6-6-6-6-6-6-2-2-2-2-2-2-2-2-4-4-4-4-4-4-4-4-7-7-7-7-9-9-9-9-
-4-4-4-4-4-4-4-4-2-2-2-2-2-2-2-2-4-4-4-4-4-4-4-4-7-7-7-7-9-9-9-9-
-----------------0-0-0-0-0-0-0-0-2-2-2-2-2-2-2-2-5-5-5-5-7-7-7-7-
 ------------------------------P.M------------------------------

------------------------------------------------------------------4-
------------------------------------------------------------------5-
-6-6-6-6-6-6-6-6--------------------------------------------------6-
-6-6-6-6-6-6-6-6-2-2-2-2-2-2-2-2-4-4-4-4-4-4-4-4-7-7-7-7-9-9-9-9--6-
-4-4-4-4-4-4-4-4-2-2-2-2-2-2-2-2-4-4-4-4-4-4-4-4-7-7-7-7-9-9-9-9--4-
-----------------0-0-0-0-0-0-0-0-2-2-2-2-2-2-2-2-5-5-5-5-7-7-7-7----
 ------------------------------P.M------------------------------     
Добавлено: 19.09.2013
Другие материалы по этой песне:

Страница создана 21.02.2012
http://primanota.ru/him/beyond-redemption-chords.htm
Привет, Гость.
Предлагаем пройти революционный курс по гитаре.
Подарок от PrimaNota.Ru, забирай!