PrimaNota.ru - самый крупный в мире бесплатный архив песенных текстов, аккордов, табулатур и нот


Hilltop Hoods - Live And Let Go - таба, видео

Регистрация Запомнить меня
Войти через:  Facebook Google Twitter Vk Yandex Mail.ru

Hilltop Hoods - Live And Let Go - таба, видео

Печатать
Просмотров: 56
-------------------------------------------------------------------------------
                             LIVE AND LET GO - Hilltop Hoods
-------------------------------------------------------------------------------
Tabbed by: Joel Green (J-Boy_Guitarist)
E-mail: joel_green999@hotmail.com

Tuning: Standard

Intro Section:                                                  x2
e|--9---8--6--|--11-9---8--6--|--11-9---8--6--|--11-9---8--6--|  
B|--11--9--7--|--13-11--9--7--|--13-11--9--7--|--13-11--9--7--|
G|--10--8--6--|--13-10--8--6--|--13-10--8--6--|--13-10--8--6--|
D|------------|---------------|---------------|---------------|
A|------------|---------------|---------------|---------------|
E|------------|---------------|---------------|---------------|

Chords Through Verse And Chorus 
e|---1-------1-------2-------4---|
B|---2-------1-------2-------4---|
G|---3-------1-------3-------5---|
D|---3-------3-------4-------6---|
A|---1-------3-------4-------6---|
E|-----------1-------2-------4---|
    A#m      Fm      F#      G#
************************************

| /   slide up
| \   slide down
| h   hammer-on
| p   pull-off
| ~   vibrato
| +   harmonic
| x   Mute note
| b   Bend
| pb  Pre-bend
| br  Bend release
| pbr Pre-bend release
| brb Bend release bend

************************************
Добавлено: 17.11.2015
Вам также может быть интересно:
Другие материалы по этой песне:
  • Аккорды и текст

Страница создана 17.11.2015
http://primanota.ru/hilltop-hoods/live-and-let-go-chords.htm
Привет, Гость.
Предлагаем пройти революционный курс по гитаре.
Подарок от PrimaNota.Ru, забирай!