PrimaNota.ru - самый крупный в мире бесплатный архив песенных текстов, аккордов, табулатур и нот


Hillsongs - O Praise The Name - таба, видео

Регистрация Запомнить меня
Войти через:  Facebook Google Twitter Vk Yandex Mail.ru

Hillsongs - O Praise The Name - таба, видео

Печатать
Просмотров: 46
-------------------------------------------------------------------------------
                          O Praise The Name (Anastasis)
                                Hillsong Live
-------------------------------------------------------------------------------
Tabbed by: mikeswimby
E-mail: mikeswimby@me.com

Tuning: Standard


Guitar 1:


Intro: No Guitar


Verse: There is no guitar for verses 1, 2 + 4


Chorus: (first time round)
   |--------------let ring--------------------------|
    C   F   C   Am  Gsus G   C/E F   Am  F   G    C
e|------1-----------0------------1-------1---0-------|
B|--1---1---1---1---1----3---1---1---1---1---1-3--1--|
G|--0-------0---2---0----0---0-------2-------0-0--0--|
D|--2---3---2---2---0----0---2---3---2---3---0-0--2--|
A|--3---3---3---0------------3---3---0---3--------3--|
E|--3-------3-------3----3---0---------------3-3--3--|


Verse3:

    C
e|---------------------------------------------------------------------|
B|---------------------------------------------------------------------|
G|---------------------------------------------------------------------|
D|----2---2---2---2---2---2---3---3---2---2---2---2---2---2---2---2----|
A|--3---3---3---3---3---3---3---3---3---3---3---3---3---3---3---3---3--|
E|---------------------------------------------------------------------|

    G                                       Am
e|-------------------------------------------------------------------------|
B|-------------------------------------------------------------------------|
G|-------------------------------------------------------------------------|
D|--9----9----9----9----9----9----9----9----10----10----10----10----10-----|
A|----10---10---10---10---10---10---10---10----12----12----12----12----12--|
E|-------------------------------------------------------------------------|

                       F                               C/E
e|--------------------------------------------------------------------------|
B|--------------------------------------------------------------------------|
G|--------------------------------------------------------------------------|
D|--10----10----10-----7---7---7---7---7---7---7---7---5---5---5---5---5----|
A|-----12----12-----12---8---8---8---8---8---8---8---8---7---7---7---7---7--|
E|--------------------------------------------------------------------------|

                G                                       C
e|---------------------------------------------------------------------------|
B|---------------------------------------------------------------------------|
G|---------------------------------------------------------------------------|
D|--5---5---5---9----9----9----9----9----9----9----9----2---2---2---2---2----|
A|----7---7---7---10---10---10---10---10---10---10---10---3---3---3---3---3--|
E|---------------------------------------------------------------------------|

                Csus
e|-----------------------------------------------|
B|-----------------------------------------------|
G|-----------------------------------------------|
D|--2---2---2---2---2---2---2---2---2---2---2----|
A|----3---3---3---3---3---3---3---3---3---3---3--|
E|-----------------------------------------------|


Chorus:

    C                    F           C                  Am          Gsus      G
e|-------------------------------------------------------------------------------------|
B|-------8-------------8-----------------------8------------5-----5-----4-----------3--|
G|-----9---10-p-9----9---10----10----9----9------10-p-9---5---5-------5---5-p-4---4----|
D|--10------------10--------10----10---10---10----------7-------7---5-----------5------|
A|-------------------------------------------------------------------------------------|
E|-------------------------------------------------------------------------------------|

    C/E                  F           Am        F                    G
e|---------------------------------------------------------------------------|
B|-------8-------------8-----------------------8-----------------------------|
G|-----9---10-p-9----9---10----10----9----9------10-p-9-10----10----12-12----|
D|--10------------10--------10----10---10---10-------------10----10-12-9-----|
A|---------------------------------------------------------------------------|
E|---------------------------------------------------------------------------|

    C
e|--------------------------------|
B|--------------------------------|
G|-----9-------9-------9-------9--|
D|--10---10-10---10-10---10-10----|
A|--------------------------------|
E|--------------------------------|


Instrumental: This is played over the chorus chords


e|-------8-------8-------8-------8-------8-------8-------7-------8-----||
B|-----8---8---8---8---8---8---8---8---8---8---8---8---8---8---8---8---||
G|---5-------5-------5-------5-------5-------5-------5-------5--------O||
D|--------------------------------------------------------------------O||
A|---------------------------------------------------------------------||
E|---------------------------------------------------------------------||


Chorus: last time through

    C                    F           C                  Am          Gsus      G
e|-------------------------------------------------------------------------------------|
B|-------8-------------8-----------------------8------------5-----5-----4-----------3--|
G|-----9---10-p-9----9---10----10----9----9------10-p-9---5---5-------5---5-p-4---4----|
D|--10------------10--------10----10---10---10----------7-------7---5-----------5------|
A|-------------------------------------------------------------------------------------|
E|-------------------------------------------------------------------------------------|

    C/E                  F           Am        F                    G
e|---------------------------------------------------------------------------|
B|-------8-------------8-----------------------8-----------------------------|
G|-----9---10-p-9----9---10----10----9----9------10-p-9-10----10----12-12----|
D|--10------------10--------10----10---10---10-------------10----10-12-9-----|
A|---------------------------------------------------------------------------|
E|---------------------------------------------------------------------------|

    Am          F           G     C
e|-----------------------------------|
B|------5-----5-------------------1--|
G|----5---5-----10----10----12-12-0--|
D|--7-------7------10----10-12-9--2--|
A|--------------------------------3--|
E|-----------------------------------|


****************************************************************************************


Guitar 2:


Guitar 2 plays chords to back up guitar 1 throughout the choruses


Verse3:

    C                               G               Am
e|-------------------------------------------------------------------|
B|----------------------------------------------------------1-1-1-1--|
G|----------------------------------------------------------2-2-2-2--|
D|--2-2-2-2-2-2-3-3-2-2-2-2-2-2-2-2-----------------2-2-2-2-2-2-2-2--|
A|--3-3-3-3-3-3-3-3-3-3-3-3-3-3-3-3-2-2-2-2-2-2-2-2-0-0-0-0-0-0-0-0--|
E|----------------------------------3-3-3-3-3-3-3-3------------------|
               |---strum---|
    F           C/E  G    C
e|--------------0----3----0--|
B|--1--1--1--1--1----3----1--|
G|--2--2--2--2--0----0----0--|
D|--3--3--3--3--2----0----2--|
A|--3--3--3--3--3---------3--|
E|-------------------3-------|



************************************

Chords:


Intro:  ||: C  Cmaj7/E  F  :||


Verse1:
          C
I cast my mind to Calvary
            G             Am
Where Jesus bled and died for me
          F                      C
I see His wounds, His hands, His feet
           G          C        Em  F
My Saviour on that cursed tree


Verse2:
         C         Csus        C                  
His body bound and drenched in tears
              G              Am
They laid Him down in Joseph's tomb
             F               C
The entrance sealed by heavy stone
       G               C
Messiah still and all alone


Chorus:
  C                      F        C
O praise the Name of the Lord our God
  Am                 Gsus G        
O praise His Name forever more
    C/E                  F         Am         
For endless days we will sing Your praise
   F        G        C
Oh Lord, oh Lord our God


Verse3:
                C                      
And then on the third at break of dawn
           G          Am
The Son of heaven rose again
           F                C          
O trampled death, where is your sting
           G                 C     Csus
The angels roar for Christ the King


Chorus:


Verse4:
           C
He shall return in robes of white
            G                 Am
The blazing sun shall pierce the night
           F              C
And I will rise among the saints
           G                C
My gaze transfixed on Jesus' face



| /   slide up
| \   slide down
| h   hammer-on
| p   pull-off
| ~   vibrato
| +   harmonic
| x   Mute note
| b   Bend
| pb  Pre-bend
| br  Bend release
| pbr Pre-bend release
| brb Bend release bend

************************************
Добавлено: 21.05.2016
Вам также может быть интересно:
Другие материалы по этой песне:
  • Аккорды и текст

Страница создана 21.05.2016
http://primanota.ru/hillsongs/o-praise-name-chords.htm
Привет, Гость.
Предлагаем пройти революционный курс по гитаре.
Подарок от PrimaNota.Ru, забирай!