PrimaNota.ru - самый крупный в мире бесплатный архив песенных текстов, аккордов, табулатур и нот


Hillsongs - Hymns Of God - Ama Namin - таба, видео

Регистрация Запомнить меня
Войти через:  Facebook Google Twitter Vk Yandex Mail.ru

Hillsongs - Hymns Of God - Ama Namin - таба, видео

Печатать
Просмотров: 47
-------------------------------------------------------------------------------
                            Ama Namin - Hymns of God
-------------------------------------------------------------------------------
Tabbed by: Bartolome
E-mail: gentekkie@yahoo.com

Tabs ulit. Di ko alam kung sino kumanta ng first Ama Namin (yung standard version sa simbahan)
Anyways, kung may makakakita nito... Enjoy!


Tuning:

e|---------|-------------|-------5-3-2---|-----------------------|-------7-5-3-5-|
B|-3-5-7-7-|-3-3-5-7-7-7-|-3-5-7-------5-|-5-5-7-8-8-5-5-7-8-8-8-|-5-7-8---------|
G|---------|-------------|---------------|-----------------------|---------------|
D|---------|-------------|---------------|-----------------------|---------------|
A|---------|-------------|---------------|-----------------------|---------------|
E|---------|-------------|---------------|-----------------------|---------------|

e|---10-9-9-7-5-5-3-3-2-5-|---10-9-9-7-3-5-|---5-3-5-7-5-3-3-2-0---|---5-5-7-7-9-9-10-|
B|-3----------------------|-3--------------|-3-------------------3-|-3----------------|
G|------------------------|----------------|-----------------------|------------------|
D|------------------------|----------------|-----------------------|------------------|
A|------------------------|----------------|-----------------------|------------------|
E|------------------------|----------------|-----------------------|------------------|

e|---5-3-2-3-----|-10-9-9-7-5-5-3-3-2-5-|-----10-9-9-7-3-5-5-|---5-3-5-7-7-9-9-10-9-7-5-2-|
B|-3---------5-5-|----------------------|-3-3----------------|-3--------------------------|
G|---------------|----------------------|--------------------|----------------------------|
D|---------------|----------------------|--------------------|----------------------------|
A|---------------|----------------------|--------------------|----------------------------|
E|---------------|----------------------|--------------------|----------------------------|

e|-------5-3-2-3-----0-|---------|---------------------------------------------|
B|-0-0-3---------0-3---|-5-3-2-3-|---------------------------------------------|
G|---------------------|---------|---------------------------------------------|
D|---------------------|---------|---------------------------------------------|
A|---------------------|---------|---------------------------------------------|
E|---------------------|---------|---------------------------------------------|


Добавлено: 21.05.2016
Другие материалы по этой песне:
  • Аккорды и текст

Страница создана 21.05.2016
http://primanota.ru/hillsongs/hymns-of-god-ama-namin-chords.htm
Привет, Гость.
Предлагаем пройти революционный курс по гитаре.
Подарок от PrimaNota.Ru, забирай!