PrimaNota.ru - самый крупный в мире бесплатный архив песенных текстов, аккордов, табулатур и нот


Hillsong Worship - Christ Is Enough - бас-таба, видео

Регистрация Запомнить меня
Войти через:  Facebook Google Twitter Vk Yandex Mail.ru

Hillsong Worship - Christ Is Enough - бас-таба, видео

Печатать
Просмотров: 40
===============================================================================
-------------------------------------------------------------------------------
                             Hillsong Worship - Christ is Enough (Live)
-------------------------------------------------------------------------------
Tabbed by: Sheizu
E-mail: Matteus_Markko@hotmail.com

Tuning: E A D G

Intro:
G|-------------------------------------------------------------------------|
D|-----------------------------------------9-9-9-9-9-9-9-9-8-8-8-8-8-8-8-8-|
A|-11-11-11-11-11-11-11-11-7-7-7-7-7-7-7-7---------------------------------|
E|-------------------------------------------------------------------------| x2

Verse 1 / 2:
Christ is my reward... / Christ my all in all...
G|------------------------------------------------------------------------|
D|----------------------------------------9-9-9-9-9-9-9-9-8-8-8-8-8-8-8-8-|
A|11-11-11-11-11-11-11-11-7-7-7-7-7-7-7-7---------------------------------|
E|------------------------------------------------------------------------| 

G|----------------------------------------------------------------|
D|----------------------------------------9-9-9-9-9-9-9-9-8-8-8-8-|
A|11-11-11-11-11-11-11-11-7-7-7-7-7-7-7-7-------------------------|
E|----------------------------------------------------------------|

Pre-Chorus 1 / 2:
Through every trial... / Trough every storm...
G|----------------------------------------------------------------------------|
D|------------------------------------------------------------6-6-6-6-9-9-9-9-|
A|6-6-6-6-7-7-7-7-9-9-9-9-11-11-11-11-6-6-6-6-7-7-7-7-7-7-7-7-----------------|
E|----------------------------------------------------------------------------|

Chorus 1:
Christ is enough...
G|-------------------------------------------------------------|
D|-------------------------------------------------------------|
A|-------------------------------------------------------------|
E|-7--------4--------2----0--------2----4----0--------2--------|

To Verse 2 

Chorus 2:
Christ is enough...
G|------------------------------------------------------------------------|
D|------------------------------------------------------------------------|
A|------------------------------------------------------------------------|
E|-7-7-7-7-7-7-7-7-4-4-4-4-4-4-4-4-2-2-2-2-0-0-0-0-0-0-0-0-2-2-2-2-4-4-4-4|

G|----------------------------------|
D|----------------------------------|
A|----------------------------------|
E|-0-0-0-0-0-0-0-0-2-2-2-2-2-2-2-2-7| Leave the last note ring.

Bridge:
The Cross before me...
G|----------------------------------------------------------------------------|
D|----------------------------------------------------------------------------|
A|----------------------------------------------------------------------------|
E|-4-4-0-0-2-2-4-4-0-0-4-4-2-2-2-2-4-4-0-0-2-2-4-4-0-0-2-2-2-2-7-7-7-7-7-7-7-7|

To Chorus 2 x2.

Bridge
I have decided to follow...
G|-------------------------------------------------------------------------|
D|-------------------------------------------------------------------------|
A|-------------------------------------------------------------------------|
E|-4-4-4-4-0-0-0-0-2-2-2-2-4-4-4-4-0-0-0-0-4-4-4-4-2-2-2-2-2-2-2-2-4-4-4-4-|

G|---------------------------------------------------------|
D|---------------------------------------------------------|
A|---------------------------------------------------------|
E|-0-0-0-0-2-2-2-2-4-4-4-4-0-0-0-0-2-2-2-2-7-7-7-7-7-7-7-7-|

G|-------------------------------------------------------------------------|
D|-------------------------------------------------------------------------|
A|-------------------------------------------------------------------------|
E|-7-7-7-7-7-7-7-7-7-7-7-7-7-7-7-7-0-0-0-0-4-4-4-4-2-2-2-2-2-2-2-2-7-7-7-7-|

G|---------------------------------------------------------|
D|---------------------------------------------------------|
A|---------------------------------------------------------|
E|-7-7-7-7-7-7-7-7-7-7-7-7-0-0-0-0-2-2-2-2-7-7-7-7-7-7-7-7-|
Добавлено: 17.02.2016
Другие материалы по этой песне:
  • Аккорды и текст

Страница создана 17.02.2016
http://primanota.ru/hillsong-worship/christ-is-enough-chords.htm
Привет, Гость.
Предлагаем пройти революционный курс по гитаре.
Подарок от PrimaNota.Ru, забирай!