PrimaNota.ru - самый крупный в мире бесплатный архив песенных текстов, аккордов, табулатур и нот


Hillsong United - Take It All Live - аккорды и текст, бас-таба, видео

Регистрация Запомнить меня
Войти через:  Facebook Google Twitter Vk Yandex Mail.ru

Hillsong United - Take It All Live - аккорды и текст, бас-таба, видео

Печатать
Просмотров: 159
Take It All Live
Hillsong United
----------------------------------------------------------------------------
TAKE IT ALL (LIVE) – Hillsong United
----------------------------------------------------------------------------
Tabbed by: donthavealife??
Email:b777vale@yahoo.com

Ok, this is the only version of this song that I have ever heard, and none of the other 
posted looked like this. So, here we go.

Tuning: Standard

Bass intro:

G|-------------------------------------------------------------------------|
D|-------------------------------------------------------------------------|
A|---2-2-2--2-2-2--2-2-2-1-1-6-6-------------------------------------------|
E|-------------------------------------------------------------------------|

Lead Guitar Part:
e|-------9--------7--------6------9/11-------------------------------------|
B|-----7--------7--------7-------------------------------------------------|
G|---8--------8--------8--------8------------------------------------------|
D|-------------------------------------------------------------------------|
A|-------------------------------------------------------------------------|
E|-------------------------------------------------------------------------|

e|-------9--------7--------7-6b7b6-----------------------------------------|
B|-----7--------7--------7---------7---------------------------------------|
G|---8--------8--------8---------------------------------------------------|
D|-------------------------------------------------------------------------|
A|-------------------------------------------------------------------------|
E|-------------------------------------------------------------------------|

The rest is just chords, so here it is if I remember right:

Intro: B Ebm over and over
It just goes back and forth between B and Ebm for the verse:

B                     Ebm
	Searching the world
		    B
The lost will be found
              Ebm
In freedom we live
               B
As one we cry out
                 Ebm
You carried the cross
		     B
You died and rose again

My God
     Ebm
I'll only ever give my all

(back to intro)

(same chords)

You sent Your Son
From heaven to earth
You delivered us all
It's eternally heard
I searched for truth
And all I found was You
My God
I'll only ever give my all

Chorus:
B            F#
Jesus we're living for Your Name
      Abm                 E
We'll never be ashamed of You

Whoa o oh
B              F#
In our praise and all we are today
Abm
Take take take it all

Take take take it all

Back to intro, then 2nd verse, chorus, etc.

The lead plays this part before the bridge:

e|---7--7--7--7--9--9--9--9--11-11-11-11-12-12-12-12-----------------------|
B|---x--x--x--x--x--x--x--x--x--x--x--x--x--x--x--x------------------------|
G|---4--4--4--4--6--6--6--6--8--8--8--8--9--9--9--9------------------------|
D|-------------------------------------------------------------------------|
A|-------------------------------------------------------------------------|
E|-------------------------------------------------------------------------|

Bridge: (this is not exact)

e|-----------------------------------|
B|---5-5-----------------------------|
G|---6-6------4-4------3-3------1-1--|
D|---6-6------6-6------4-4------2-2--|
A|---4-4------6-6------4-4------2-2--|
E|------------4-4------2-2------0-0--| Running to the One Who heals the blind

e|-------------------------------------------------------------------------|
B|--5-5--------------------------------------------------------------------|
G|--6-6-------4-4-------3-3------------------------------------------------|
D|--6-6-------6-6-------4-4------------------------------------------------|
A|--4-4-------6-6-------4-4------------------------------------------------|
E|------------4-4-------2-2------------------------------------------------|
  Following the shining light

e|-------------------------------------------------------------------------|
B|---5-5-------------------------------------------------------------------|
G|---6-6------4-4------3-3------1-1----------------------------------------|
D|---6-6------6-6------4-4------2-2----------------------------------------|
A|---4-4------6-6------4-4------2-2----------------------------------------|
E|------------4-4------2-2------0-0----------------------------------------|
In Your hands the power to save the world

e|----------2--------------------------------------------------------------|
B|----------4--------------------------------------------------------------|
G|----------4--------------------------------------------------------------|
D|----------4--------------------------------------------------------------|
A|----------2--------------------------------------------------------------|
E|-------------------------------------------------------------------------|
     In my life

| /  slide up
| \  slide down
| h  hammer-on
| p  pull-off
| ~  vibrato
| +  harmonic
| x  Mute note
============================================================================
Добавлено: 25.02.2012
Другие материалы по этой песне:
  • Аккорды и текст

Страница создана 25.02.2012
http://primanota.ru/hillsong-united/take-it-all-live-chords.htm
Привет, Гость.
Предлагаем пройти революционный курс по гитаре.
Подарок от PrimaNota.Ru, забирай!