PrimaNota.ru - самый крупный в мире бесплатный архив песенных текстов, аккордов, табулатур и нот


Hillsong United - Look To You - текст песни, бас-таба, видео

Регистрация Запомнить меня
Войти через:  Facebook Google Twitter Vk Yandex Mail.ru

Hillsong United - Look To You - текст песни, бас-таба, видео

Печатать
Просмотров: 192
-------------------------------------------------------------------------------
			     Look To You - Hillsong United
-------------------------------------------------------------------------------

Tabbed By : Zechariah Gill
e-mail: gillzack@hotmail.com

Tuning: Standard
(First Chorus no bass)
Intro:
G|---------------------------------------------------------------------------|
D|---------------------------------------------------------------------------|
A|------8-8-8-3-------8-8-8-3------------------------------------------------|
E|6-6-6---------6-6-6--------------------------------------------------------|

Verse I:x2
G|--------------5------------------------------------------------------------|
D|---------------------------------------------------------------------------|
A|2/13-13\3-3-3---3--3---3---------------------------------------------------|
E|---------------------3-----------------------------------------------------|

G|--------------5------------------------------------------------------------|
D|---------------------------------------------------------------------------|
A|3/13-13\3-3-3---3--3---3------------------1-1-1-1-1-1-1--------------------|
E|---------------------3----3-3-3-3-3-3-3-3----------------------------------|


Pre-Chorus:x2
G|---------------------------------------------------------------------------|
D|---------------------------------------------------------------------------|
A|6-6-6-6-6-6-6-6-8-8-8-8-8-8-8-8-6-6-6-6-6-6-6-6-3-3-3-3-3-3-3-3------------|
E|---------------------------------------------------------------------------|

G|---------------------------------------------------------------------------|
D|---------------------------------------------------------------------------|
A|6-6-6-6-6-6-6-6-10-10-10-10-10-10-10-10-8-8-8-8-8-8-8-8-8-8-8-8-8-8-8-8----|
E|---------------------------------------------------------------------------|


Chorus I:(just bass and drum)
G|--10-12-8------------------------------------------------------------------|
D|8---------8-6-5------------------------------------------------------------|
A|----------------6----------------------------------------------------------|
E|---------------------------------------------------------------------------|


Verse II:x2
G|-------------------------------------------5-------------------------------|
D|---------------------------------------------------------------------------|
A|------8-8-8-3-------8-8-8-3--2/13-13\3-3-3---3--3---3----------------------|
E|6-6-6---------6-6-6-------------------------------3------------------------|

G|--------------5------------------------------------------------------------|
D|---------------------------------------------------------------------------|
A|3/13-13\3-3-3---3--3---3------------------1-1-1-1-1-1-1--------------------|
E|---------------------3----3-3-3-3-3-3-3-3----------------------------------|


Pre-Chorus:
G|8-8-8-8-8-8-8-8-10-10-10-10-10-10-10-10-8-8-8-8-8-8-8-8-5-5-5-5-5-5-5-5----|
D|---------------------------------------------------------------------------|
A|---------------------------------------------------------------------------|
E|---------------------------------------------------------------------------|

G|8-8-8-8-8-8-8-8-12-12-12-12-12-12-12-12-10-10-10-10-10-10-10-10------------|
D|---------------------------------------------------------------------------|
A|---------------------------------------------------------------------------|
E|---------------------------------------------------------------------------|

G|---------------------------------------------------------------------------|
D|---------------------------------------------------------------------------|
A|6-6-6-6-6-6-6-6-8-8-8-8-8-8-8-8-6-6-6-6-6-6-6-6-3-3-3-3-3-3-3-3------------|
E|---------------------------------------------------------------------------|

G|---------------------------------------------------------------------------|
D|---------------------------------------------------------------------------|
A|6-6-6-6-6-6-6-6-10-10-10-10-10-10-10-10-8-8-8-8-8-8-8-8-8-8-8-8-8-8-8-8----|
E|---------------------------------------------------------------------------|


Chorus II:x2
G|---------------------------------------------------------------------------|
D|---------------------------------------------------------------------------|
A|----------------8-8-8-8-8-8-8-8-10-10-10-10-10-10-10-10--------------------|
E|6-6-6-6-6-6-6-6------------------------------------------------------------|

G|---------------------------------------------------------------------------|
D|---------------------------------------------------------------------------|
A|------------------------------------------------6-6-6-6-6-6-6-6------------|
E|6-6-6-6-6-6-6-6-4-4-4-4-4-4-4-4-3-3-3-3-3-3-3-3----------------------------|


Musical Interlude:x2
G|-----------------------------------------------------------------|
D|-----------------------------------------------------------------|
A|----------------8-8-8-8-8-8-8-8-3-3-3-3-3-3-3-3-6-6-6-6-6-6-6-6--|
E|6-6-6-6-6-6-6-6--------------------------------------------------|


Pre-Chorus:x2
G|---------------------------------------------------------------------------|
D|---------------------------------------------------------------------------|
A|6-6-6-6-6-6-6-6-8-8-8-8-8-8-8-8-6-6-6-6-6-6-6-6-3-3-3-3-3-3-3-3------------|
E|---------------------------------------------------------------------------|

G|---------------------------------------------------------------------------|
D|---------------------------------------------------------------------------|
A|6-6-6-6-6-6-6-6-10-10-10-10-10-10-10-10-8-8-8-8-8-8-8-8-8-8-8-8-8-8-8-8----|
E|---------------------------------------------------------------------------|


Chorus III:
G|--10-12-8---------------------------------------------------------------------------|
D|8---------8-6-5---------------------------------------------------------------------|
A|----------------6-6-6-6-6-6-6-6-----------------------------------------------------|
E|------------------------------------------------------------------------------------|

G|---------------------------------------------------------------------------|
D|---------------------------------------------------------------------------|
A|----------------8-8-8-8-8-8-8-8-10-10-10-10-10-10-10-10--------------------|
E|6-6-6-6-6-6-6-6------------------------------------------------------------|

G|---------------------------------------------------------------------------|
D|---------------------------------------------------------------------------|
A|------------------------------------------------6-6-6-6-6-6-6-6------------|
E|6-6-6-6-6-6-6-6-4-4-4-4-4-4-4-4-3-3-3-3-3-3-3-3----------------------------|

G|---------------------------------------------------------------------------|
D|---------------------------------------------------------------------------|
A|----------------8-8-8-8-8-8-8-8-10-10-10-10-10-10-10-10--------------------|
E|6-6-6-6-6-6-6-6------------------------------------------------------------|

G|---------------------------------------------------------------------------|
D|---------------------------------------------------------------------------|
A|------------------------------------------------6-6-6-6-6-6-6-6------------|
E|6-6-6-6-6-6-6-6-4-4-4-4-4-4-4-4-3-3-3-3-3-3-3-3----------------------------|
Hold the 6 and let it ring until your bass goes out. after that is the silent chorus 
the crowd is singing and there are no instruments. well that should be it. add my msn for 
bass tabs by Zechariah Gill


| /  slide up
| \  slide down
| h  hammer-on
| p  pull-off
| ~  vibrato
| +  harmonic
| x  Mute note
===============================================================================
Добавлено: 17.04.2012
Другие материалы по этой песне:
  • Аккорды и текст

Страница создана 13.03.2012
http://primanota.ru/hillsong-united/look-to-you-chords.htm
Привет, Гость.
Предлагаем пройти революционный курс по гитаре.
Подарок от PrimaNota.Ru, забирай!