PrimaNota.ru - самый крупный в мире бесплатный архив песенных текстов, аккордов, табулатур и нот


Hillsong United - Inside Out - таба, видео

Регистрация Запомнить меня
Войти через:  Facebook Google Twitter Vk Yandex Mail.ru

Hillsong United - Inside Out - таба, видео

Печатать
Просмотров: 113
h= hammer on
/= slide
p= pull off
b= bend

e --------------------12--------12-------10-----------|
b ----------13---------------13-----13------12--------|
g ---12h14------14--------12--------------------12----|
d ----------------------------------------------------|    4X
a ----------------------------------------------------|
e ----------------------------------------------------|


Then make up a little lead part for the verses off the E pentatonic.


e --------------------12--------12-------10-----------|
b ----------13---------------13-----13------12--------|
g ---12h14------14--------12--------------------12----|
d ----------------------------------------------------|  2X
a ----------------------------------------------------|
e ----------------------------------------------------|


Verse again


Then for the pre chourus dont play anything or do the same thing you did for the verses.


e --------------------12--------12-------10-----------|
b ----------13---------------13-----13------12--------|
g ---12h14------14--------12--------------------12----|
d ----------------------------------------------------|    2X
a ----------------------------------------------------|
e ----------------------------------------------------|


Verse

for the chourus

-----------------------12-----13---|
-----13--------10------13-----13---|
-----12--------12------12-----12---|      i think 4X
-----------------------------------|
-----------------------------------|
-----------------------------------|

SoLo

-------------------12----13----------------------------------------------|
------13----10-----13----13-----13--------12---12---13-------------------|
------12----12-----12----12---------14-------------------12--------------|
-------------------------------------------------------------------------|
-------------------------------------------------------------------------|
-------------------------------------------------------------------------|

---------------------------------------------------------12---13---------|
----13-------12--12--13----------------------------------13---13--2X-----|
--------14---------------10--9-10-9-7-9-7-5-7-5--4b------12---12---------|
-------------------------------------------------------------------------|
-------------------------------------------------------------------------|
-------------------------------------------------------------------------|

----------17------------17------------17------------17------------19-----|
-------------------------------------------------------------------------|
-----16---------16-----------16-------------16-----------------19--------|
-------------------------------------------------------------------------|
-------------------------------------------------------------------------|
-------------------------------------------------------------------------|
Добавлено: 15.07.2012
Другие материалы по этой песне:
  • Аккорды и текст

Страница создана 15.07.2012
http://primanota.ru/hillsong-united/inside-out-chords.htm
Привет, Гость.
Предлагаем пройти революционный курс по гитаре.
Подарок от PrimaNota.Ru, забирай!