PrimaNota.ru - самый крупный в мире бесплатный архив песенных текстов, аккордов, табулатур и нот


Hillsong United - In Your Freedom - аккорды и текст, видео

Регистрация Запомнить меня
Войти через:  Facebook Google Twitter Vk Yandex Mail.ru

Hillsong United - In Your Freedom - аккорды и текст, видео

Печатать
Просмотров: 153
In Your Freedom
Hillsong United
In Your Freedom
tabbed by: Jeffrey D.S. Galuno, April 20, 2010, 9:48 pm

intro:
G - A - Bm - Bm7/A
G - A - Bm - Bm

riff:
   G     A     Bm  Bm7/A   G     A     Bm    Bm
e-----|-----|-----|-----|-----|-----|-----|-----|
B--0--|--2--|--3--|-----|--0--|--2--|--3--|-----|
G-----|-----|-----|--2--|-----|-----|-----|-----|


G             A              Bm    Bm7/A
  I search for You God of strength
G           A              Bm    Bm    RIFF: 
  I bow to You in my brokenness         e-------7---|
                                        B----(7)----} harmonics
                                        G--7--------| (7) is optional note


      G                A                 Bm-Bm7/A
And no other King could have so humbly come
     G                A       Bm-Bm7/A
To save my soul and heal my heart

REFRAIN: 
Bm         A         G            A
  I have nothing more than all You offer me
Bm           A         G           A
  There is nothing else that's of worth to me
   
CHORUS: 
D         A       Bm
  And I love You Lord
      G
You rescued me
D          A          Bm
  You are all that I want
        G
You're all that I need

Interlude: G - A - Bm - Bm7/A

G            A            Bm-Bm7/A
  I pray to You God of peace
G            A            Bm-Bm7/A
  I rest in You my cares released

REPEAT REFRAIN
REPEAT CHORUS

INSTRUMENTAL

         D                   A                   Bm                 G
e-------------------|------------------|-------------------|-------7------9B10---|
B--5-7-5-7----7-5-7-|------------------|-5-7-5-7----7-5-7--|-7H8P7---7H8P7-------|
G-------------------|--4-6-4-6---6-4-6-|-------------------|---------------------|

         D                   A                   Bm                 G
e-------------------|------------------|-777--999--12|12|12|--|14|14|14--15-----|
B--5-7-5-7----7-5-7-|------------------|-------------------|--------------------|
G-------------------|--4-6-4-6---6-4-6-|-------------------|--------------------|

                         D
In Your freedom I will live
                         Bm
In Your freedom I will live
           Bm7/A  G               D
I offer devotion, I offer devotion
Добавлено: 18.07.2012
Другие материалы по этой песне:
  • Аккорды и текст

Страница создана 18.07.2012
http://primanota.ru/hillsong-united/in-your-freedom-chords.htm
Привет, Гость.
Предлагаем пройти революционный курс по гитаре.
Подарок от PrimaNota.Ru, забирай!