PrimaNota.ru - самый крупный в мире бесплатный архив песенных текстов, аккордов, табулатур и нот


Hillsong United - I Believe - таба, видео

Регистрация Запомнить меня
Войти через:  Facebook Google Twitter Vk Yandex Mail.ru

Hillsong United - I Believe - таба, видео

Печатать
Просмотров: 182
Hillsong United- I Believe
This is my first tab. I based it on the guitar cover by JeaC on youtube.

Intro/Verse
e|-------------|
b|-------------|
g|12------7----| x15
D|-X------7-x6-|
A|10------5----|
E|-------------|

Pre-Chorus
e|-------------|
b|-------------|
g|12----/14----|
D|-X-x8-/-X-x8-|
A|10----/12----|
E|-------------|

Chorus
e|----------------------------------------------------------------------|
b|----------------------------------------------------------------------|
g|-------7-----9------7----5------------7------------------------12-----|
D|-5-----7-x8--9-x12--7-x4-5-x16--5-----7-x8--7------9----10------X-x32-|
A|-5-x8--5-----7------5----3------5-x4--5-----7-x12--9-x4-10-x9--10-----|
E|-3------------------------------3-----------5------7-----8------------|

Verse
e|-------------|
b|-------------|
g|12------7----| x6
D|-X------7-x6-|
A|10------5----|
E|-------------|

Pre-Chorus
e|-------------|
b|-------------|
g|12----/14----|
D|-X-x8-/-X-x8-|
A|10----/12----|
E|-------------|

Chorus
e|--------------------------------------------------------------|
b|--------------------------------------------------------------|
g|-------7-----9------7----5------------7-----------------------|
D|-5-----7-x8--9-x12--7-x4-5-x16--5-----7-x8--7------9----10----| x2
A|-5-x8--5-----7------5----3------5-x4--5-----7-x12--9-x4-10-x9-|
E|-3------------------------------3-----------5------7-----8----|

Solo
e|-----------------|
b|-----------------|
g|-----------------|
D|-----------5-7-5-| x8
A|-7-7-7-5---------|
E|---------7-------|

e|---------------------|
b|---------------------|
g|---------------------|
D|-----------5-7-5-----|
A|-7-7-7-5---------5~~~|
E|---------7-----------|

Bridge
e|-----------------------|
b|-----------------------|
g|12~-12----11--14--12---| 
D|-X- -Xx10--X---X---x---|
A|10~-10-----9--12--10---|
E|-----------------------|


e|----------------|
b|12--11--14--12--|
g|-x--x----x---x--| 
D|-X--x----x---x--|
A|10--9---12--10--|
E|----------------|

e|-----------------------|
b|-----------------------|
g|12~----11---14----12---| 
D|-X-x8--X-x8--X-x8--x-x8|
A|10~-----9---12----10---|
E|-----------------------|


e|------------------------|
b|12---11-----14----12----|
g|-X-x8-Xx8----X-x8--X-x8-| 
D|-X----X------X-----X----|
A|10----9-----12----10----|
E|------------------------|

Chorus
e|--------------------------------------------------------------|
b|--------------------------------------------------------------|
g|-------7-----9------7----5------------7-----------------------|
D|-5-----7-x8--9-x12--7-x4-5-x16--5-----7-x8--7------9----10----| x2
A|-5-x8--5-----7------5----3------5-x4--5-----7-x12--9-x4-10-x9-|
E|-3------------------------------3-----------5------7-----8----|

Outro
e|---------------------------------|
b|---------------------------------|
g|12----11----12------11-----12----| 
D|-X-x3--X-x4--X-x3----x-x4---X-x3-|
A|10-----9----10-------9-----10----|
E|---------------------------------|

e|-------------------------------------|
b|12-----11----12----11-----12---------|
g|-X-x3--X-x4---X-x3--X-x4---X-x3--12~~| 
D|-X-----X------X-----X------X------X--|
A|10-----9-----10-----9-----10-----10~~|
E|-------------------------------------|


Добавлено: 11.03.2012
Другие материалы по этой песне:
  • Аккорды и текст

Страница создана 11.03.2012
http://primanota.ru/hillsong-united/i-believe-chords.htm
Привет, Гость.
Предлагаем пройти революционный курс по гитаре.
Подарок от PrimaNota.Ru, забирай!