PrimaNota.ru - самый крупный в мире бесплатный архив песенных текстов, аккордов, табулатур и нот


Hillsong United - Desperate People - текст песни, таба, видео

Регистрация Запомнить меня
Войти через:  Facebook Google Twitter Vk Yandex Mail.ru

Hillsong United - Desperate People - текст песни, таба, видео

Печатать
Просмотров: 125
Desperate People
by: Hillsong United
Album: Across the Earth
Tabbed by: Jeffrey D.S. Galuno
Tab Date: March 25, 2010  8:49 p.m.

help me with some traditional legends in making guitar tab.
I'm a newbie. Hope this will help you.

legend: b = bend up/down

e--12--------------|
B-----12b13b12-----|

press on the 12th fret then bend it till you hit the note of the 13th

fret- You will not press on the 13th fret.

solo:

e--12--------------10-10-10-10--|
B-----12b13b12--10--------------|
G-------------------------------|
D-------------------------------|
A-------------------------------|
E-------------------------------|


e--12--------------10-10-10-10--|
B-----12b13b12--10--------------|
G-------------------------------|
D-------------------------------|
A-------------------------------|
E-------------------------------|


e--12--------------10-10-10-10--15-15-15-15-13-13-13-13--|
B-----12b13b12--10---------------------------------------|
G--------------------------------------------------------|
D--------------------------------------------------------|
A--------------------------------------------------------|
E--------------------------------------------------------|

e--12--------------10-10-10-10--|
B-----12b13b12--10--------------|
G-------------------------------|
D-------------------------------|
A-------------------------------|
E-------------------------------|

e--12--------------10-10-10-10--15-15-15-15-13-13-13-13--|
B-----12b13b12--10---------------------------------------|
G--------------------------------------------------------|
D--------------------------------------------------------|
A--------------------------------------------------------|
E--------------------------------------------------------|


e-17-17-17-17-19-19-19-19--------|
B--------------------------------|
G--------------------------------|
D--------------------------------|
A--------------------------------|
E--------------------------------|

Intro: F Am 3x C G

Verse:
F                        Am
You crossed the great divide, You took our place
F                    Am
You offered up Your life, though we have failed
F                      Am
The veil was torn and love remained
         C     G
You are holy Lord
F                  Am
Distraction cast aside, we seek Your face
F                Am
We offer up our lives to bring You praise
F                    Am
A love the walls cannot contain
         C     G
You are holy Lord

Refrain:
                     Dm            Am
We're rising up in spirit and in truth
               F                 C
A living sacrifice we worship You
              Dm              Am
A people undivided Lord hear us sing
          F
We are Yours and You are our King

Chorus:
          C
This is our love
G
Hearts joined as one
Am                       F
Desperate for all You are
                   C
Lord break down these walls
      G
And see how we run
Dm                      F
Desperate for all You want
                  Am F Am
We chase Your heart

Verse:
F                  Am
We didn't come to leave here entertained
F                Am
Or worship under any other name
F                    Am
We're crying out for You alone
         C     G
You are holy Lord

Refrain:
                     Dm            Am
We're rising up in spirit and in truth
               F                 C
A living sacrifice we worship You
              Dm              Am
A people undivided Lord hear us sing
          F
We are Yours and You are our King

Chorus:
          C
This is our love
G
Hearts joined as one
Am                       F
Desperate for all You are
                   C
Lord break down these walls
      G
And see how we run
Dm                      F
Desperate for all You want
We chase Your heart

solo guitar: FOLLOW THE TAB ABOVE

Show us the way to Your heart

Bridge:
Am
We found our voice
G/B
We found our cause
F                 C   -   G/B
We're on our knees, the carpet's worn
Am
As we join our hearts
G/B             F
With distant shores and sing to You Lord

Chorus: 2x
          C
This is our love
G
Hearts joined as one
Am                       F
Desperate for all You are
                   C
Lord break down these walls
      G
And see how we run
Dm                      F
Desperate for all You want
          C
This is our love
G
Hearts joined as one
Am                       F
Desperate for all You are
                   C
Lord break down these walls
      G
And see how we run
Dm                      F
Desperate for all You want
                  Am F Am
We chase Your heart

coda: F Am


corrrections are welcome
Добавлено: 24.05.2012
Другие материалы по этой песне:
  • Аккорды и текст

Страница создана 24.05.2012
http://primanota.ru/hillsong-united/desperate-people-chords.htm
Привет, Гость.
Предлагаем пройти революционный курс по гитаре.
Подарок от PrimaNota.Ru, забирай!