PrimaNota.ru - самый крупный в мире бесплатный архив песенных текстов, аккордов, табулатур и нот


Hilera - Sungrass - таба, видео

Регистрация Запомнить меня
Войти через:  Facebook Google Twitter Vk Yandex Mail.ru

Hilera - Sungrass - таба, видео

Печатать
Просмотров: 92
Intro-

e|-------------------------|-------------------------| 
b|-7-----7---77---7--------|--5---5---55---5---------|      
g|--7--P-7-P-77-P-7--------|--6-P-6-P-66-P-6---------|
D|---9---9---99---9--------|--7---7---77---7---------|    
A|-------------------------|-------------------------|    
E|-------------------------|-------------------------|  


e|-------------------------|-------------------------| 
b|-7-----7---77---7--------|--5---5------------------|      
g|--7--P-7-P-77-P-7--------|--6-P-6--P---------------|
D|---9---9---99---9--------|--7---7------------------|    
A|-------------------------|-------------------------|    
E|-------------------------|-------------------------| 

Not yet sure...
e|--------5--------------|   |--------3-----------------| 
b|------------------8----|   |--------------------5-----|      
g|-----------------------|   |--------------------------|
D|----5-------- 5--------|2X |---4------------4---------|  2X  
A|--7---7-----7---7------|   |-5----5-------5---5-------|    
E|-----------------------|   |--------------------------|  

    
    E7sus                 B      C
e|---------------------|-------------------------| 
b|-101010101010--------|-------------------------|      
g|-777777777777--------|-------------------------|
D|-999999999999--------|-9999--10101010----------|  2X  
A|-777777777777--------|-9999--10101010----------|    
E|---------------------|-7777--88888888----------|  

Verse1
    
    E7sus                 B      C
e|---------------------|-------------------------| 
b|-101010101010--------|-------------------------|      
g|-777777777777--------|-------------------------|
D|-999999999999--------|-9999--10101010----------|  2X  
A|-777777777777--------|-9999--10101010----------|    
E|---------------------|-7777--88888888----------|  


Interlude1

 
Not yet sure...
e|---------------------------------8-----8----8------| 
b|-------------------------------8-----8-----8-------|      
g|---------------77---7---7-h9-----------------------|
D|---99---99---7----9---9----------------------------|    
A|---77------7---------------------------------------|    
E|---------------------------------------------------|  


e|--------------------------8-----8----8------| 
b|----------------------8-8-----8-----8-------|      
g|---------------77---------------------------|
D|---99---99---7------------------------------|    
A|---77------7--------------------------------|    
E|--------------------------------------------|



Verse1
    
    E7sus                 B      C
e|---------------------|-------------------------| 
b|-101010101010--------|-------------------------|      
g|-777777777777--------|-------------------------|
D|-999999999999--------|-9999--10101010----------|  2X  
A|-777777777777--------|-9999--10101010----------|    
E|---------------------|-7777--88888888----------|    



Chorus

e|------------------------------------------------------------------| 
b|------------------------------------------------------------------|      
g|-------------------------5555555---------------------5555555------|
D|-xxxx-5555555--2222222---5555555--5555555--2222222---3333333------|    
A|-xxxx-5555555--2222222---3333333--5555555--2222222---3333333------|    
E|-xxxx-3333333--0000000------------3333333--0000000----------------|  


Interlude2

e|---------------------------------------------| 
b|---------------------------------------------|      
g|---------------------------------------------|
D|-22-222-s-44-444-s--77-7777---99999999--- ---| 2x   
A|---------------------------------------------|    
E|---------------------------------------------|  


e|-----------------------------------------------------------| 
b|--8888-s-777-s-888-s-1010-88-8777--7-888-5-3^3^5-----------|      
g|-----------------------------------------------------------|
D|-----------------------------------------------------------|    
A|-----------------------------------------------------------|    
E|-----------------------------------------------------------|    

e|----------------------------------------------------------------| 
b|--8888-s-777-s-888-s-1010-1212/10-12-10101010----8^8^8^8-8/1010-|      
g|----------------------------------------------------------------|
D|----------------------------------------------------------------|    
A|----------------------------------------------------------------|    
E|----------------------------------------------------------------| 

Verse2
    
    E7sus                 B      C
e|---------------------|-------------------------| 
b|-101010101010--------|-------------------------|      
g|-777777777777--------|-------------------------|
D|-999999999999--------|-9999--10101010----------|  2X  
A|-777777777777--------|-9999--10101010----------|    
E|---------------------|-7777--88888888----------|    



Chorus

e|------------------------------------------------------------------| 
b|------------------------------------------------------------------|      
g|-------------------------5555555---------------------5555555------|
D|-xxxx-5555555--2222222---5555555--5555555--2222222---3333333------|    
A|-xxxx-5555555--2222222---3333333--5555555--2222222---3333333------|    
E|-xxxx-3333333--0000000------------3333333--0000000----------------|   



Interlude

BaSS
Acoustic Onlym heheh..
e|------------------------------------------------------------------| 
b|------------------------------------------------------------------|  
g|------------------------------------------------------------------|
D|-----4------2-----4------2--------4-------2-------4--------2------|    
A|---5------3------5------3--------5-------3-------5--------3-------|    
E|-33----11------3-------1--------3-------1------3---------1--------|

Guitar1  

e|----5b--7b----5-3---5b---7b----5-3--5b---7b----5-3---12b-10---------| 
b|-------------------------------------------------------------12-----|  
g|--------------------------------------------------------------------|
D|--------------------------------------------------------------------|    
A|--------------------------------------------------------------------|    
E|--------------------------------------------------------------------| 

e|-------------------------------------------| 
b|-------------------------333333333---------|  
g|--44444444---------------555555555---------|2x
D|--55555555---22222222----555555555---------|    
A|--55555555---22222222----333333333---------|    
E|--33333333---00000000----------------------| 

Chorus2

e|--------------------------------------------------------------| 
b|--------------------------------------------------------------|      
g|-------------------------5555555---------------------5555555--|
D|-xxxx-5555555--2222222---5555555--5555555--2222222---3333333--|    
A|-xxxx-5555555--2222222---3333333--5555555--2222222---3333333--|    
E|-xxxx-3333333--0000000------------3333333--0000000------------|
  
e|---------------------------| 
b|---------------------------| 
g|--7-7-7-7------------------|
D|--7-7-7-7-------5----------|    
A|--5-5-5-5-------5-P--------|    
E|----------------3----------|

P=hold
p=pull off
b=^=bend
s=/=slide
Добавлено: 12.07.2013
Другие материалы по этой песне:
  • Аккорды и текст

Страница создана 12.07.2013
http://primanota.ru/hilera/sungrass-chords.htm
Привет, Гость.
Предлагаем пройти революционный курс по гитаре.
Подарок от PrimaNota.Ru, забирай!