PrimaNota.ru - самый крупный в мире бесплатный архив песенных текстов, аккордов, табулатур и нот


Hilera - Smiles And Fades - таба, видео

Регистрация Запомнить меня
Войти через:  Facebook Google Twitter Vk Yandex Mail.ru

Hilera - Smiles And Fades - таба, видео

Печатать
Просмотров: 71
intro-Bb
e|----------------------------|
b|----------------------------|
g|----------------------------|
D|-8~-------------------------|
A|-8~-------------------------|
E|-6~-------------------------|


   Bb          Gm     Eb           F  2x
e|--------------------------------------------------------|
b|--------------------------------------------------------|
g|------------------8888888----1010101010-----------------|
D|-88888888-5555555-8888888---1010101010------------------|
A|-88888888-5555555-6666666--888888888--------------------|
E|-66666666-3333333---------------------------------------|

verse-Bb          Gm          Eb             F  2x 
e|-----------|---------------|------------|-------------|
b|-----------|---------------|------------|---------8~--|
g|-----------|---3~----------|---------8~-|-------------|
D|---------7~|---------------|------8~----|------10~----|2X
A|-----8~----|--------5~-----|--6~--------|---8~--------|
E|-6~--------|---3~----------|------------|-------------|


intro-Bb    Gm       Eb        F  2x
e|--------------------------------------------------------|
b|--------------------------------------------------------|
g|------------------8888888----1010101010-----------------|
D|-88888888-5555555-8888888---1010101010------------------|
A|-88888888-5555555-6666666--888888888--------------------|
E|-66666666-3333333---------------------------------------|



verse-Bb          Gm          Eb             F  2x 
e|-----------|---------------|------------|-------------|
b|-----------|---------------|------------|---------8~--|
g|-----------|---3~----------|---------8~-|-------------|
D|---------7~|---------------|------8~----|------10~----|2X
A|-----8~----|--------5~-----|--6~--------|---8~--------|
E|-6~--------|---3~----------|------------|-------------|


ref- come and take this mind and body.......
PM O PM O PM O PM PM O PM
e|---------------------------------------------------------------------|
b|---------------------------------------------------------------------|
g|--88888888--1010101010-------12X12X12X12X12X12X12X12X12X12X12X12X12X-|
D|--88888888--1010101010-------12X12X12X12X12X12X12X12X12X12X12X12X12X-|
A|--66666666--888888888--------10X10X10X10X10X10X10X10X10X10X10X10X10X-|
E|---------------------------------------------------------------------|

PM O PM O PM O PM PM O PM
e|---------------------------------------------------------------------|
b|---------------------------------------------------------------------|
g|--88888888--1010101010-------12X12X12X12X12X12--------12121212-------|
D|--88888888--1010101010-------12X12X12X12X12X12--------12121212-------|
A|--66666666--888888888--------10X10X10X10X10X10--------10101010-------|
E|---------------------------------------------------------------------|
   PM    O             
e|-----------3x-|   |------|
b|----------3-x-|   |------| 
g|---------3--x-|27X|------| 
D|-55-----5---x-|   |-3333-| 
A|-55----5----x-|   |-3333-|
E|-33---3-----x-|   |-1111-|

  Eb  F  Gm  2x then... G# (27 strokes)...F
repeat intro-verse... then do intro chords 4x 
 
OUTRO
e|-------------------------------------|
b|-------------------------------------|
g|---------888--101010-----------------|
D|-888-555-888--101010-----------------|
A|-888-555-666--8-8-8------------------|
E|-666-333-----------------------------|


   Bb5                            G5          
e|-----------------------------|-----------------------------|
b|-----------------------------|-----------------------------|
g|-----------------------------|-----------------------------|
D|-8-8-8-xxxx-8-xxxx-8-xxxx-8--|-5-5-5-xxxx-5-xxxx-5-xxxx-5--|
A|-8-8-8-xxxx-8-xxxx-8-xxxx-8--|-5-5-5-xxxx-5-xxxx-5-xxxx-5--|
E|-6-6-6-xxxx-6-xxxx-6-xxxx-6--|-3-3-3-xxxx-3-xxxx-3-xxxx-3--|


e|-----------------------------|---------------------------------|
b|-----------------------------|---------------------------------|
g|-8-8-8-xxxx-8-xxxx-8-xxxx-8--|-10-10-10-xxxx-10-xxxx-10-xxxx-10|
D|-8-8-8-xxxx-8-xxxx-8-xxxx-8--|-10-10-10-xxxx-10-xxxx-10-xxxx-10|
A|-6-6-6-xxxx-6-xxxx-6-xxxx-6--|-8--8--8--xxxx-8--xxxx-8--xxxx-8-|
E|-----------------------------|---------------------------------|



   Bbm          Gm     Eb           F  2x
e|--------------------------------------------------------|
b|--------------------------------------------------------|
g|------------------8888888----1010101010-----------------|
D|-88888888-5555555-8888888---1010101010------------------|
A|-88888888-5555555-6666666--888888888--------------------|
E|-66666666-3333333---------------------------------------|

guitar 2 sa outro 
e|-----------------------------------------|
b|--4-3----6------4--3------6-----4-3------|
g|------3-----3-3------3------33------3----|
D|-----------------------------------------|
A|-----------------------------------------|
E|-----------------------------------------|



by  f_sario@yahoo.com  add  u sa friendster...hehehe...
Добавлено: 13.11.2013
Другие материалы по этой песне:
  • Аккорды и текст

Страница создана 13.11.2013
http://primanota.ru/hilera/smiles-and-fades-chords.htm
Привет, Гость.
Предлагаем пройти революционный курс по гитаре.
Подарок от PrimaNota.Ru, забирай!