PrimaNota.ru - самый крупный в мире бесплатный архив песенных текстов, аккордов, табулатур и нот


Hilera - Hilera - таба, видео

Регистрация Запомнить меня
Войти через:  Facebook Google Twitter Vk Yandex Mail.ru

Hilera - Hilera - таба, видео

Печатать
Просмотров: 96
By-Francis
Location - Carmelite, Lucena City
Cp #- 09109712432
E-add- f_sario@yahoo.com  (friendster)add me!
School- Sacred Heart College


1.
RHYME W/O REASON

Intro pt 1
e|----------------------------------------|
B|----------------------------------------|
G|--8888/10101010--8888/10101010----------|
D|-- xxxx-x-x-x-x-xxxxxxxxxxxxxx----------|
A|--6666/-8-8-8-8--6666/-8-8-8-8----------|
E|----------------------------------------|

Intro pt 2
e|-x-6--6--6--6---6X--6X---8X--8X-----------------------------|
B|-x-6--6--6--6---7X--7X---9X--9X-----------------------------|
G|-x-6--6--6--6---6X--6X---8X--8X-----------------------------|
D|-x-8x-8x-8x-8x--8X--8X--10X--10X----------------------------| Repeat--| 2x
A|-x-8x-8x-8x-8x--6x--6x---8x--8x-----------------------------|
E|-x-6x-6x-6x-6x----------------------------------------------|

 VERSE-
e|-x-6--6--6--6---6X--6X---8X--8X---------------------------------|
B|-x-6--6--6--6---7X--7X---9X--9X---------------------------------|
G|-x-6--6--6--6---6X--6X---8X--8X---------------------------------|
D|-x-8x-8x-8x-8x--8X--8X--10X--10X----------------------| Repeat--| 2x
A|-x-8x-8x-8x-8x--6x--6x---8x--8x---------------------------------|
E|-x-6x-6x-6x-6x--------------------------------------------------|

e|-x-6--6--6--6---6X--6X---8X--8X---------------------------------|
B|-x-6--6--6--6---7X--7X---9X--9X---------------------------------|
G|-x-6--6--6--6---6X--6X---8X--8X---------------------------------|
D|-x-8x-8x-8x-8x--8X--8X--10X--10X----------------------| Repeat--| 2x
A|-x-8x-8x-8x-8x--6x--6x---8x--8x---------------------------------|
E|-x-6x-6x-6x-6x--------------------------------------------------|

e|---------------------------------------------------|
B|---------------------------------------------------|
G|----8888--5555-------------------------------------|
D|----8888--5555-------------------------------------|
A|----6666--3333-------------------------------------|
E|---------------------------------------------------|

REPEAT VER AND CHO.


solo- i'm not yet sure of this...
e|------------------------------------------------------------------|
B|-14-14-13--11-9-11-11--14b14b14b----11h-13-11---------------------|
G|-x--x--x---x--x--x--x--14b14b14b12-----------h12-12-10------------|
D|-12-12-11--9--7--9--9---------------------------------------------|
A|------------------------------------------------------------------|
E|------------------------------------------------------------------|

e|-----------------------------------------------------------|
B|------------------------------------------------------------|
G|----------10------------------------------------------------|
D|-13-11-13----13--10h11--------------------------------------|
a|------------------------13----------------------------------|
E|------------------------------------------------------------|

e|-------------------------------------------------------------------|
B|--------------------------11----11--13s14--11-----11---------------|
G|------------10-----10-12-----12---------------12-------------------|
D|--10-11-13------13-------------------------------------------------|
a|-------------------------------------------------------------------|
E|-------------------------------------------------------------------|

e|--------11-13---------11-13--------11-13--------11-13------------|
B|-11--14---------11-14--------11-14--------11--14-----------------|
G|-----------------------------------------------------------------|
D|-----------------------------------------------------------------|
a|-----------------------------------------------------------------|
E|-----------------------------------------------------------------|

e|----------------------------------13-------------|
B|-11-10-----------11-14----11---14----14--11------|
G|-------13-12-------------------------------------|
D|-------------------------------------------------|
a|-------------------------------------------------|

E|--------16-18p-------16-18-------16-18------16-18--18-18-18b----|
b|-16h19---------16h19-------16h19-------16h19--------------------|
g|----------------------------------------------------------------|
d|----------------------------------------------------------------|


AFTER BRIDGE SOLO
    sliding part
e|------------------------------------------------------|
B|-------------------------------------------------------|
G|--1/8/1/4/1--------------------8888/10101010--8888/10101010----| REPEAT 2X
D|--xxxxxxxxx---------{then}-----xxxx--x-x-x-x--xxxx--x-x-x-x----|
A|--1/8/1/4/1--------------------6666/-8-8-8-8--6666/-8-8-8-8----|
E|-------------------------------------------------------|

THEN GUItaR 2
E|---------------------------------------------------------|
B|---------7---------7---------7-------------------------|
G|-------8---8----8-----8----8-----8----------------------|
D|--------------------------------------------------------|

REPEAT CHO.. NA PAUSE
RHYME.PAUSE............WITHOUT REASON....
e|-------------------6666---8888------------------------------------|
B|-------------------7777---99999-----------------------------------|
G|-------------------6666---8888------------------------------------|
D|-------------------8888---10101010----------------------| Repeat--| 2x
A|-------------------6666---8888------------------------------------|
E|------------------------------------------------------------------|

Stuck in a...
e|--6X-6X-8X-8---8X--8X---8X----------8----10--8~-------------------------|
B|--8X-8X-8X-8---7X--7X---9X--------8----8--------------------------------|
G|--8X-8X-8X-8---6X--6X---8X------8---------------------------------------|
D|--8x-8x-8x-8x--8X--8X--10X----8-----------------------------------------| 
A|--8x-8x-8x-8x--6x--6x---8x---8------------------------------------------|
E|--6x-6x-6x-6x---------------6-------------------------------------------|


2.
POTOF GOLD--

Standard Tuning
Gtr 1 
e|------------------------------         --------------------|
B|------------------------------         --------------------|  
G|---8-8-8-8--------------------         ----5~---------7----|
D|---8-8-8-8---6-6-6-6/8-8-8-8-- 4x then ---6~----------8----|
A|---6-6-6-6---6-6-6-6/8-8-8-8--         --6~-----------8----|
E|-------------4-4-4-4/6-6-6-6--         -4~------------6----|
   .  .  .  .  . . . . . . . .

Gtr 1 Who wrote the rules that God made
e|----------------------------------------          --------------------------|
B|----------------------------------------          --------------------------|
G|----------------------------------------          --------------------------|
D|-1313131313131313-x-66666666-/88888888-  3x then  1313131313131313--6~--8---|
A|-1131313131313133-x-66666666-/88888888-           1313131313131313--6~--8---|
E|-1111111111111111-x-44444444-/66666666-           1111111111111111--4~--6---|
   .   .   .   .    . . . .     . . . .              . . . . . . . .  
 
Chorus
Gtr 1 Do you know, do you know
e|-----------------------------------------         ---------------------------------|
B|-----------------------------------------         ---------------------------------|
G|-----------------------8~-888------------ 3x then ----------------------8~88888888-|
D|-10~-101010-x-6~-666-x-8~-888-x-8~888----         -10~101010-x-6~-666-x-8~88888888-|
A|-10~-101010-x-6~-666-x-6~-666-x-8~888----         -10~101010-x-6~-666-x-6~66666666-|
E|-8~--8-8-8--x-4~-444-x--------x-6~666----         -8~-8-8-8--x-4~-444-x------------|
       . . .       ...     ...

Do Verse Riff 2x
Repeat:Verse 1
Then Chorus

Bridge

Gtr 1
  know..oh..ohh.ohh..ohh
e|------------------------P-------------------------      --------------|     
B|------------------------A-------------------------      --------------|
G|------------------------U-------------------------      ----(7)--9~---|
D|-10--8--6--8--10--8--6--S--10--8--6--8--10~--8~--- Then ---(8)---10~--|
A|-10--8--6--8--10--8--6--E--10--8--6--8--10~--8~---      --(8)----10~--|
E|-8---6--4--6--8---6--4--D--8---6--4--6--8~---6~---      -(6)-----8~---|
   .   .  .  .  .   .  .     .   .  .  .
Gtr 1
e|----------------------------------------------------|
B|----------------------------------------------------|
G|-x-8-8-8-8------------------------------------------|  4x
D|-x-x-x-x-x-x----6--6----x--8---8--------------------|
A|-x-6-6-6-6-x----x--x----x--x---x--------------------|
E|-----------x----4--4----x--6---6--------------------|

Then Chorus:Bass Solo (techno sounding)
G|-----------------------------------------|
D|-----------------------------------------|
A|-66666666-----------66666666-------------|
E|----------4444-6666----------4444-66666--|

Gtr 1 Enters
e|-------------------------|
B|-------------------------|
G|---------------7~--7~----|
D|-10--6--8--10--6~--8~----|
A|-10--6--8--10--6~--8~----|
E|-8---4--6--8---4~--6~----|
   .   .  .  .  

Repeat Chorus
Then Intro

Last Chord

e|--------|
B|--------|
G|--------|
D|-13-----|
A|-13-----|
E|-11-----|

3.PASS the walls

intro-
e|--7-7---------9--9---------------------------|
b|--7-7---------10-10--------------------------|
g|--7-7--hold---11-11--------------------------|
d|--9-9---------11-11--------------------------|2x
a|--9-9---------9--9---------------------------|
E|--7-7----------------------------------------|


verse: Bm F#m 4X
Drain the light out on me
e|--7-7---------9--9---------------------------|
b|--7-7---------10-10--------------------------|
g|--7-7--hold---11-11----hold------------------|
d|--9-9---------11-11--------------------------|2x
a|--9-9---------9--9---------------------------|
E|--7-7----------------------------------------|
Walking through this evening

e|--7-7---------9--9---------------------------|
b|--7-7---------10-10--------------------------|
g|--7-7--hold---11-11--------------------------|
d|--9-9---------11-11-----hold-----------------|2x
a|--9-9---------9--9---------------------------|
E|--7-7----------------------------------------|


cho: Em Bm Em F#m 2X
e|--9999999--77777777--9999999--1010101010------------------|
b|--10101010-77777777--10101010-1111111111------------------|
g|--1111111--77777777--1111111--1212121212------------------|
d|--1111111--99999999--1111111--1212121212------------------|
a|--9999999--99999999--9999999--1010101010------------------|
E|-----------77777777---------------------------------------|



ADLIB

e|--xxx77-xxx77--|------xxx9--9---xxx9--9------------------------|
b|--xxx77-xxx77--|------xxx10-10--xxx10-10-----------------------|
g|--xxx77-xxx77--|------xxx11-11--xxx11-11-----------------------|
d|--xxx99-xxx99--|------xxx11-11--xxx11-11-----------------------|2x
a|--xxx99-xxx99--|------xxx9--9---xxx9--9------------------------|
E|--xxx77-xxx77--|-----------------------------------------------|
solo 2x
e|-----14-------14----14----------------------------------------------------|
b|-------15-------15-----15-------------------------------------------------|
g|----------16------16------16-16--14-14-12-12------------------------------|
d|--------------------------------------------------------------------------|
a|--------------------------------------------------------------------------|
E|--------------------------------------------------------------------------|


e|-----14-------14----------------------------------------------------------|
b|-------15-------15--------------------------------------------------------|
g|----------16------16---11-11--12-12---14--14--12-12-----------------------|
d|--------------------------------------------------------------------------|
a|--------------------------------------------------------------------------|
E|--------------------------------------------------------------------------|



repeat verse and chorus-


Bm F#m ----
From here 
outro..
e|--7-7---------9--9---------------------------|
b|--7-7---------10-10--------------------------|
g|--7-7--hold---11-11--------------------------|
d|--9-9---------11-11--------------------------|2x
a|--9-9---------9--9---------------------------|
E|--7-7----------------------------------------|

4.
DEFINE





Intro

e|---------------------------------------------------------|
B|---------------------------------------------------------|
G|-666~-666666666666-666~-666666666---666~-66666666666666--|
D|-666~-666666666666-666~-666666666---666~-66666666666666--|
A|-444~-444444444444-444~-444444444---444~-44444444444444--|
E|---------------------------------------------------------|
                                



Chorus 
e|----------------------------------|
B|----------------------------------|
G|--666666----------2222222---------|
D|--666666-6666666--2222222-444444--| 2x
A|--444444-6666666--1111111-444444--|
E|---------4444444----------222222--|


INTERLUDE

GUITAR1

e|----------6------------------------6-------|
B|---6--9-------6---9---------6--9------6-9--|
G|-6----------------------6------------------|  4X
D|-------------------------------------------| 
A|-------------------------------------------|
E|-------------------------------------------|

Guitar 2 
e|----------------------------------|
B|----------------------------------|
G|--666666----------2222222---------|
D|--666666-6666666--2222222-444444--| 2x
A|--444444-6666666--1111111-444444--|
E|---------4444444----------222222--|





Verse  

e|--------------------|
B|--------------------|
G|--6~/6~-/2~---------|  2X
D|--6~/6~-/2~---4~----|
A|--4~/3~-/1~---4~----|
E|--------------2~----|

REFRAIN

e|---------------------------------|
B|---------------------------------|
G|--66666---66666------------------|
D|--66666---66666---88888---44444--| 2x
A|--44444---55555---88888---44444--|
E|------------------66666---22222--|

     

Repeat Chorus
INTERLUDE

Bridge

e|-------------------------------|
B|-------------------------------|
G|-----------------66666---------|2x
D|---88888--44444--66666--66666--|
A|---88888--44444--44444--66666--|
E|---66666--22222---------44444--|

last verse 
                                         wooohh
e|----------------------------------|   ----------|
B|----------------------------------|   ----------|
G|--666666----------2222222---------|   ----------|
D|--666666-6666666--2222222-444444--| 2x---666666-|
A|--444444-6666666--1111111-444444--|   ---666666-|
E|---------4444444----------222222--|   ---444444-|



5.
LIES IN MY ULO


guitar1
e---------------------------------------------------------|
b---7-7---------------------------------------------------|
g------9-9-9---6-6-6-6-----7-7----------------------------|
d-----------------------------9-9-9-7-7-7-----------------|2x
a---------------------------------------------------------|
E---------------------------------------------------------|
guitar2 at the 3rd tym
e------------------------------------------------|
b------------------------------------------------|
g--44444444444-----------------------------------|
d--44444444444-5555555555------------------------|
a--22222222222-55555555555-----------------------|
E--------------33333333333-----------------------|

VERSE- Bm G


Tonight don't let me fall asleep
e--------------------------------------------------|x
b--------------------------------------------------|x
g--44444444444-------------------------------------|x
d--44444444444-5555555555--------------------------|x
a--22222222222-55555555555-------------------------|x
E--------------33333333333-------------------------|x
If i do, please wake me up
e--------------------------------------------------|x
b--------------------------------------------------|x
g--44444444444-------------------------------------|x
d--44444444444-5555555555--------------------------|x
a--22222222222-55555555555-------------------------|x
E--------------33333333333-------------------------|x

Cos it comes like a thief in the night
e--------------------------------------------------|x
b--------------------------------------------------|x
g--44444444444-------------------------------------|x
d--44444444444-5555555555--------------------------|x
a--22222222222-5555555555--------------------------|x
E--------------3333333333--------------------------|x
You never know
e--------------------------------------------------|x
b--------------------------------------------------|x
g--44444444444-------------------------------------|x
d--44444444444-5555555555--------------------------|x
a--22222222222-55555555555-------------------------|x
E--------------33333333333-------------------------|x

 INTRO
guitar1
e---------------------------------------------------------|
b---7-7---------------------------------------------------|
g------9-9-9---6-6-6-6-----7-7----------------------------|
d-----------------------------9-9-9-7-7-7-----------------|2x
a---------------------------------------------------------|
E---------------------------------------------------------|
g2
e------------------------------------------------|
b------------------------------------------------|
g--44444444444-----------------------------------|
d--44444444444-55555555555-----------------------|
a--22222222222-55555555555-----------------------|
E--------------33333333333-----------------------|

repeat verse
Tonight don't let me fall apart
If i do, please pick me up
Cos it comes like a thief in the night
You never know

INTERLUDE-D G D A D F#m D A
e--------------------------------------------------------|
b--------------------------------------------------------|
g----------121212121212----------141414141414------------|
d-12-12-12-121212121212-12-12-12-141414141414------------|
a-12-12-12-101010101010-12-12-12-121212121212------------|
E-10-10-10--------------10-10-10-------------------------|

e--------------------------------------------|
b--------------------------------------------|
g----------111111111-----------141414141414--|
d-12-12-12-111111111--12-12-12-141414141414--|
a-12-12-12-99999999---12-12-12-121212121212--|
E-10-10-10------------10-10-10---------------|

CHORUS- D G Em G
Cos tonight i'll think about the words you said
Tonight i'll think about the lies in my head

e------------------------------------------------|
b------------------------------------------------|
g--77777777777-----------------------------------|
d--77777777777-55555555555--2222222222--55555555-|2x
a--55555555555-55555555555--2222222222--55555555-|
E--------------33333333333--0000000000--33333333-|

VERSE 2 repeat verse

Tonight don't even bother me
Cos i won't even be here
So tonight just let me go
And think until my fingers bleed

solo
bass
e-------------------------------------------------------|
b-------------------------------------------------------|
g-------------------------------------------------------|
d-------0------0------0---------------------------------|
a--2---------2---2--------------------------------------|
E-----0---0---------0-----------------------------------|

guitar1
e---------------------------------------------------------|
b---7-7---------------------------------------------------|
g------9-9-9---6-6-6-6-----7-7----------------------------|
d-----------------------------9-9-9-7-7-7-----------------|2x
a---------------------------------------------------------|
E---------------------------------------------------------|

e-------------------------------------------------------|
b--7-7-7-7--8-8-8-8--10-10------------------------------|
g--------------------------7-7-7-7-7--9-9-9-------------|
d-------------------------------------------------------|
a-------------------------------------------------------|
E-------------------------------------------------------|

e-------------------------------------------------------|
b--7-7--------------------------------------------------|
g------9-9-9---6---7-7----------------------------------|
d------------------------9-9-9---7-7--9-----------------|
a-------------------------------------------------------|
E-------------------------------------------------------|

THEN - D G D A D F#m D A
e--------------------------------------------------------|
b--------------------------------------------------------|
g----------121212121212----------141414141414------------|
d-12-12-12-121212121212-12-12-12-141414141414------------|
a-12-12-12-101010101010-12-12-12-121212121212------------|
E-10-10-10--------------10-10-10-------------------------|

e--------------------------------------------|
b--------------------------------------------|
g----------111111111-----------141414141414--|
d-12-12-12-111111111--12-12-12-141414141414--|
a-12-12-12-99999999---12-12-12-121212121212--|
E-10-10-10------------10-10-10---------------|


CHORUS2 D G Em G
Tonight i'll think about the words you said
Tonight i'll think about the lies in my head



REPEAT VERSE REF INTERLUDE END



6.
DEHADO



Intro-

e|----6----4------6--------|    |--4~----|

b|--4----4-----4----4------|    |--------|

g|-------------------------|7x  |--------|

D|-------------------------|    |--------|

A|-------------------------|    |--------|

E|-------------------------|    |--------|



Verse1

    

e|------4--|---------|-----4--|---------|

b|---------|---------|--------|---------|

g|---------|------3--|--------|------3--|

D|---------|----5----|--------|----5----|

A|----6----|--3------|---6----|--3------|

E|--4------|---------|-4------|---------|





e|--------|--------|--------|--------|

B|--------|------6-|-----8~-|-9~-----|

G|------6-|--------|-----8~-|-8~-----|

D|----6---|--------|---8----|-8~-----|

A|--4-----|---8----|-6------|--------|

E|--------|-6------|--------|--------|



Refrain-

    pm         pm            pm      pm

e|----------------------|----------------------|

B|----------------------|----------------------|

G|-----------55555555---|-----------55555555---|

D|-33333333--55555555---|-33333333--55555555---|

A|-33333333--33333333---|-33333333--33333333---|

E|-11111111-------------|-11111111-------------|



     pm         pm            pm      pm

e|----------------------|----------------------|

B|----------------------|----------------------|

G|-33333333--66666666---|-33333333--66666666---|

D|-33333333--66666666---|-33333333--66666666---|

A|-11111111--44444444---|-11111111--44444444---|

E|----------------------|----------------------|



     pm         pm            pm      pm

e|----------------------|----------------------|

B|----------------------|----------------------|

G|-----------55555555---|-----------55555555---|

D|-33333333--55555555---|-33333333--55555555---|

A|-33333333--33333333---|-33333333--33333333---|

E|-11111111-------------|-11111111-------------|



    pm         pm            

e|----------------------|-----------------------------------|

B|----------------------|------------------------999999-----|

G|-33333333--66666666---|-333333--6666666-888888-888888-----|

D|-33333333--66666666---|-333333--6666666-888888-888888-----|

A|-11111111--44444444---|-111111--4444444-666666-666666-----|

E|----------------------|-----------------------------------|



Chorus1

e|-------------------------|   |-------------------|

B|-------------------------|   |--2222222--3333333-|

G|------------55555555555--|   |--3333333--6666666-|

D|-6666666666-55555555555--|3X |--3333333--6666666-|

A|-6666666666-33333333333--|   |--1111111--4444444-|

E|-4444444444--------------|   |-------------------|







Interlude1





Guitar1

e|----------33-444---666-----|

B|-444--666--------------44--|

G|---------------------------|4X

D|---------------------------|

A|---------------------------|

E|---------------------------|



ExtraGuitaR

e|----------------------|----------------------|

B|----------------------|----------------------|

G|-----------55555555---|-----------55555555---|

D|-33333333--55555555---|-33333333--55555555---|

A|-33333333--33333333---|-33333333--33333333---|

E|-11111111-------------|-11111111-------------|





e|----------------------|----------------------|

B|----------------------|----------------------|

G|-33333333--66666666---|-33333333--66666666---|

D|-33333333--66666666---|-33333333--66666666---|

A|-11111111--44444444---|-11111111--44444444---|

E|----------------------|----------------------|





Verse2

   

e|----------------------------------------------------------------------|

B|------------------------------------------------------------99999999--| 

G|-----------5-5-5-----------5-5-5---3-3-3---6-6-6---88888888-88888888--|2x

D|-66-6-6-6--5-5-5---6-6-6---5-5-5---3-3-3---6-6-6---88888888-88888888--|

A|-66-6-6-6--3-3-3---6-6-6---3-3-3---1-1-1---4-4-4---66666666-66666666--|

E|-44-4-4-4----------4-4-4----------------------------------------------|   



Chorus2

e|-------------------------|   |-------------------|

B|-------------------------|   |--2222222--3333333-|

G|------------55555555555--|   |--3333333--6666666-|

D|-6666666666-55555555555--|3X |--3333333--6666666-|

A|-6666666666-33333333333--|   |--1111111--4444444-|

E|-4444444444--------------|   |-------------------|





Chorus3

   pm  pm  pm   pm  pm pm     pm

e|---------------------------------------|         |-------------------|

B|------------------------4------4-------|         |--2222222--3333333-|

G|--------------55-555-55-5---55-5-------|         |--3333333--6666666-|

D|-66-666-666-6-55-555-55-5---55-5-------|3X       |--3333333--6666666-|

A|-66-666-666-6-33-333-33-----33---------|         |--1111111--4444444-|

E|-44-444-444-4--------------------------|         |-------------------|





Outro-



Guitar1

e|----------33-444---666-----|

B|-444--666--------------44--|

G|---------------------------|8x

D|---------------------------|

A|---------------------------|

E|---------------------------|



ExtraGuitaR 2x

e|----------------------|----------------------|

B|----------------------|----------------------|

G|-----------55555555---|-----------55555555---|

D|-33333333--55555555---|-33333333--55555555---|

A|-33333333--33333333---|-33333333--33333333---|

E|-11111111-------------|-11111111-------------|





e|----------------------|----------------------|

B|----------------------|----------------------|

G|-33333333--66666666---|-33333333--66666666---|

D|-33333333--66666666---|-33333333--66666666---|

A|-11111111--44444444---|-11111111--44444444---|

E|----------------------|----------------------|





Guitar1

Outro2

e|----6----4------6--------|----6----4------6--------|    

b|--4----4-----4----4------|--4----4-----4----4------|     

g|-------------------------|-------------------------|Do until end

D|-------------------------|-------------------------|    

A|-------------------------|-------------------------|    

E|-------------------------|-------------------------|    

7.
Up In The Heavens Tab by Hilera, www.Ultimate-Guitar.Com

by rakitahz_03@yahoo.com   add nyo naman sa friendster..

verse-C#5 D5 E5 F#5
   PM              PM            PM            PM
e--------------------------------------------------------------------|
b--------------------------------------------------------------------|
g--66x-8x8x8x8x8x8-77x-7x7x7x7x7-99x-9x9x9x9x-1111x-11x11x11x11x11x--|
d--66x-8x8x8x8x8x8-77x-7x7x7x7x7-99x-9x9x9x9x-1111x-11x11x11x11x11x--|
a--44x-4x4x4x4x4x4-55x-5x5x5x5x5-77x-7x7x7x7x-9-9x---9x-9x-9x-9x-9x--|
E--------------------------------------------------------------------|
If i could see the light then i'm not so blind
I will realize
That i have become one of them
I will realize

Ref-D5 E5 F#5
                             x  x  x  x
E--------------------------------------------------|
B--------------------------------------------------|
G---7~/9~/11~---7~/9~/11~---11-11-11-11------------|
D---7~/9~/11~---7~/9~/11~---11-11-11-11------------|4x
A---5~/7~/9~----5~/7~/9------9-9---9--9------------|
E--------------------------------------------------|

Away from reality
I indulge myself, indulge myself
To live, to try to fight
To gain

Cho-F#5 A B

Fly up the heavens so high
E------------------------------------|
B------------------------------------|
G------------------------------------|
D--4~----7~----9~--------------------|
A--4~----7~----9~--------------------|
E--2~----5~----7~--------------------|
Fly up the heavens so high
E------------------------------------|
B------------------------------------|
G------------------------------------|
D--4~----7~----9~--------------------|
A--4~----7~----9~--------------------|
E--2~----5~----7~--------------------|

interlude
E------------------------------------------------------------------------|
B------------------------------------------------------------------------|
G-----------4-4h6-4-----------6-6h7-6---------------6-7/9-7-6--9/11-11---|
D-4-4-4-6-7---------7-666-7-9--------6--6-6-6-7-6-9----------------------|
A------------------------------------------------------------------------|
E------------------------------------------------------------------------|

repeat verse ref and chorus

8.
ALL OF DIS

intro
e--------------------------------------------|
b-----2-----2-------2------2-----------------|
g---------4---2----------4---2---------------|
D--------------------------------------------|
A---0---0---------0----0---------------------|
E--------------------------------------------|
                                                        2x
e--------------------------------------------|
b-----2-----2-------2------2-----------------|
g---------4---2----------4---2---------------|
D--------------------------------------------|
A--------------------------------------------|
E---0---0-------4------4---------------------|

then g2 enters
2x
e-----------------------------------------------------|
b-----------------------------------------------------|
g-----------------------------------------------------|
D---7777777777777----22222222-66666666----------------|
A---7777777777777----22222222-66666666----------------|
E---5555555555555----00000000-44444444----------------|
g2- A E G#5

verse- 
All the time
Doing nothing, getting nothing
e--------------------------------------------|
b-----2-----2-------2------2-----------------|
g---------4---2----------4---2---------------|
D--------------------------------------------|
A---0---0---------0----0---------------------|
E--------------------------------------------|
                                                        
e--------------------------------------------|
b-----2-----2-------2------2-----------------|
g---------4---2----------4---2---------------|
D--------------------------------------------|
A--------------------------------------------|
E---0---0-------4------4---------------------|
Sometimes
Fishing something, getting nothing
e--------------------------------------------|
b-----2-----2-------2------2-----------------|
g---------4---2----------4---2---------------|
D--------------------------------------------|
A---0---0---------0----0---------------------|
E--------------------------------------------|
                                                        
e--------------------------------------------|
b-----2-----2-------2------2-----------------|
g---------4---2----------4---2---------------|
D--------------------------------------------|
A--------------------------------------------|
E---0---0-------4------4---------------------|
From me
Diamond rings are for earrings only
e--------------------------------------------|
b-----2-----2-------2------2-----------------|
g---------4---2----------4---2---------------|
D--------------------------------------------|
A---0---0---------0----0---------------------|
E--------------------------------------------|
                                                        
e--------------------------------------------|
b-----2-----2-------2------2-----------------|
g---------4---2----------4---2---------------|
D--------------------------------------------|
A--------------------------------------------|
E---0---0-------4------4---------------------|
Too bad
It's difficult to fall
e--------------------------------------------|
b-----2-----2-------2------2-----------------|
g---------4---2----------4---2---------------|
D--------------------------------------------|
A---0---0---------0----0---------------------|
E--------------------------------------------|
                                                        
e--------------------------------------------|
b-----2-----2-------2------2-----------------|
g---------4---2----------4---2---------------|
D--------------------------------------------|
A--------------------------------------------|
E---0---0-------4------4---------------------|

chorus- c#5 A5 E5 f#5

                                                        
e------------------------------------------------------------------|
b------------------------------------------------------------------|
g-----66666666-----------------------------------------------------|
D-----66666666---777777777---22222222-444444444--------------------|
A-----444444444--777777777---22222222-444444444--------------------|
E----------------555555555---00000000-222222222--------------------|

Til one of these fall down on me
And it's a wasted time

then -sabay
e--------------------------------------------|
b-----2-----2-------2------2-----------------|
g---------4---2----------4---2---------------|
D--------------------------------------------|
A---0---0---------0----0---------------------|
E--------------------------------------------|
                                                        2x
e--------------------------------------------|
b-----2-----2-------2------2-----------------|
g---------4---2----------4---2---------------|
D--------------------------------------------|
A--------------------------------------------|
E---0---0-------4------4---------------------|


2x
e-----------------------------------------------------|
b-----------------------------------------------------|
g-----------------------------------------------------|
D---7777777777777----22222222-66666666----------------|
A---7777777777777----22222222-66666666----------------|
E---5555555555555----00000000-44444444----------------|

repeat verse
chorus


9.PILIT

10.SUNGRASS

Intro-



e|-------------------------|-------------------------| 

b|-7-----7---77---7--------|--5---5---55---5---------|      

g|--7--P-7-P-77-P-7--------|--6-P-6-P-66-P-6---------|

D|---9---9---99---9--------|--7---7---77---7---------|    

A|-------------------------|-------------------------|    

E|-------------------------|-------------------------|  





e|-------------------------|-------------------------| 

b|-7-----7---77---7--------|--5---5------------------|      

g|--7--P-7-P-77-P-7--------|--6-P-6--P---------------|

D|---9---9---99---9--------|--7---7------------------|    

A|-------------------------|-------------------------|    

E|-------------------------|-------------------------| 



Not yet sure...

e|--------5--------------|   |--------3-----------------| 

b|------------------8----|   |--------------------5-----|      

g|-----------------------|   |--------------------------|

D|----5-------- 5--------|2X |---4------------4---------|  2X  

A|--7---7-----7---7------|   |-5----5-------5---5-------|    

E|-----------------------|   |--------------------------|  



    

    E7sus                 B      C

e|---------------------|-------------------------| 

b|-101010101010--------|-------------------------|      

g|-777777777777--------|-------------------------|

D|-999999999999--------|-9999--10101010----------|  2X  

A|-777777777777--------|-9999--10101010----------|    

E|---------------------|-7777--88888888----------|  



Verse1

    

    E7sus                 B      C

e|---------------------|-------------------------| 

b|-101010101010--------|-------------------------|      

g|-777777777777--------|-------------------------|

D|-999999999999--------|-9999--10101010----------|  2X  

A|-777777777777--------|-9999--10101010----------|    

E|---------------------|-7777--88888888----------|  





Interlude1



 

Not yet sure...

e|---------------------------------8-----8----8------| 

b|-------------------------------8-----8-----8-------|      

g|---------------77---7---7-h9-----------------------|

D|---99---99---7----9---9----------------------------|    

A|---77------7---------------------------------------|    

E|---------------------------------------------------|  





e|--------------------------8-----8----8------| 

b|----------------------8-8-----8-----8-------|      

g|---------------77---------------------------|

D|---99---99---7------------------------------|    

A|---77------7--------------------------------|    

E|--------------------------------------------|







Verse1

    

    E7sus                 B      C

e|---------------------|-------------------------| 

b|-101010101010--------|-------------------------|      

g|-777777777777--------|-------------------------|

D|-999999999999--------|-9999--10101010----------|  2X  

A|-777777777777--------|-9999--10101010----------|    

E|---------------------|-7777--88888888----------|    







Chorus



e|------------------------------------------------------------------| 

b|------------------------------------------------------------------|      

g|-------------------------5555555---------------------5555555------|

D|-xxxx-5555555--2222222---5555555--5555555--2222222---3333333------|    

A|-xxxx-5555555--2222222---3333333--5555555--2222222---3333333------|    

E|-xxxx-3333333--0000000------------3333333--0000000----------------|  





Interlude2



e|---------------------------------------------| 

b|---------------------------------------------|      

g|---------------------------------------------|

D|-22-222-s-44-444-s--77-7777---99999999--- ---| 2x   

A|---------------------------------------------|    

E|---------------------------------------------|  





e|-----------------------------------------------------------| 

b|--8888-s-777-s-888-s-1010-88-8777--7-888-5-3^3^5-----------|      

g|-----------------------------------------------------------|

D|-----------------------------------------------------------|    

A|-----------------------------------------------------------|    

E|-----------------------------------------------------------|    



e|----------------------------------------------------------------| 

b|--8888-s-777-s-888-s-1010-1212/10-12-10101010-88-8^8^8^8-8/1010-|      

g|----------------------------------------------------------------|

D|----------------------------------------------------------------|    

A|----------------------------------------------------------------|    

E|----------------------------------------------------------------| 



Verse2

    

    E7sus                 B      C

e|---------------------|-------------------------| 

b|-101010101010--------|-------------------------|      

g|-777777777777--------|-------------------------|

D|-999999999999--------|-9999--10101010----------|  2X  

A|-777777777777--------|-9999--10101010----------|    

E|---------------------|-7777--88888888----------|    







Chorus



e|------------------------------------------------------------------| 

b|------------------------------------------------------------------|      

g|-------------------------5555555---------------------5555555------|

D|-xxxx-5555555--2222222---5555555--5555555--2222222---3333333------|    

A|-xxxx-5555555--2222222---3333333--5555555--2222222---3333333------|    

E|-xxxx-3333333--0000000------------3333333--0000000----------------|   







Interlude



BaSS

Acoustic Onlym heheh..

e|------------------------------------------------------------------| 

b|------------------------------------------------------------------|  

g|------------------------------------------------------------------|

D|-----4------2-----4------2--------4-------2-------4--------2------|    

A|---5------3------5------3--------5-------3-------5--------3-------|    

E|-33----11------3-------1--------3-------1------3---------1--------|



Guitar1  



e|----5b--7b----5-3---5b---7b----5-3--5b---7b----5-3---12b-10---------| 

b|-------------------------------------------------------------12-----|  

g|--------------------------------------------------------------------|

D|--------------------------------------------------------------------|    

A|--------------------------------------------------------------------|    

E|--------------------------------------------------------------------| 



e|-------------------------------------------| 

b|-------------------------333333333---------|  

g|--44444444---------------555555555---------|2x

D|--55555555---22222222----555555555---------|    

A|--55555555---22222222----333333333---------|    

E|--33333333---00000000----------------------| 



Chorus2



e|--------------------------------------------------------------| 

b|--------------------------------------------------------------|      

g|-------------------------5555555---------------------5555555--|

D|-xxxx-5555555--2222222---5555555--5555555--2222222---3333333--|    

A|-xxxx-5555555--2222222---3333333--5555555--2222222---3333333--|    

E|-xxxx-3333333--0000000------------3333333--0000000------------|

  

e|---------------------------| 

b|---------------------------| 

g|--7-7-7-7------------------|

D|--7-7-7-7-------5----------|    

A|--5-5-5-5-------5-P--------|    

E|----------------3----------|



P=hold

p=pull off

b=^=bend

s=/=slide

11.NOTHING NEW

BY DOOBIDOO..

1.
RHYME W/O REASON

Intro pt 1
e|----------------------------------------|
B|----------------------------------------|
G|--8888/10101010--8888/10101010----------|
D|-- xxxx-x-x-x-x-xxxxxxxxxxxxxxxxx-------|
A|--6666/-8-8-8-8--6666/-8-8-8-8----------|
E|----------------------------------------|

Intro pt 2
e|-x-6--6--6--6---6X--6X---8X--8X---------------------------------|
B|-x-6--6--6--6---7X--7X---9X--9X---------------------------------|
G|-x-6--6--6--6---6X--6X---8X--8X---------------------------------|
D|-x-8x-8x-8x-8x--8X--8X--10X--10X----------------------| Repeat--| 2x
A|-x-8x-8x-8x-8x--6x--6x---8x--8x---------------------------------|
E|-x-6x-6x-6x-6x--------------------------------------------------|

 VERSE-
e|-x-6--6--6--6---6X--6X---8X--8X---------------------------------|
B|-x-6--6--6--6---7X--7X---9X--9X---------------------------------|
G|-x-6--6--6--6---6X--6X---8X--8X---------------------------------|
D|-x-8x-8x-8x-8x--8X--8X--10X--10X----------------------| Repeat--| 2x
A|-x-8x-8x-8x-8x--6x--6x---8x--8x---------------------------------|
E|-x-6x-6x-6x-6x--------------------------------------------------|

e|-x-6--6--6--6---6X--6X---8X--8X---------------------------------|
B|-x-6--6--6--6---7X--7X---9X--9X---------------------------------|
G|-x-6--6--6--6---6X--6X---8X--8X---------------------------------|
D|-x-8x-8x-8x-8x--8X--8X--10X--10X----------------------| Repeat--| 2x
A|-x-8x-8x-8x-8x--6x--6x---8x--8x---------------------------------|
E|-x-6x-6x-6x-6x--------------------------------------------------|

e|---------------------------------------------------|
B|---------------------------------------------------|
G|----8888--5555-------------------------------------|
D|----8888--5555-------------------------------------|
A|----6666--3333-------------------------------------|
E|---------------------------------------------------|

REPEAT VER AND CHO.


solo- i'm not yet sure of this...
e|------------------------------------------------------------------|
B|-14-14-13--11-9-11-11--14b14b14b----11h-13-11---------------------|
G|-x--x--x---x--x--x--x--14b14b14b12-----------h12-12-10------------|
D|-12-12-11--9--7--9--9---------------------------------------------|
A|------------------------------------------------------------------|
E|------------------------------------------------------------------|

e|-----------------------------------------------------------|
B|------------------------------------------------------------|
G|----------10------------------------------------------------|
D|-13-11-13----13--10h11--------------------------------------|
a|------------------------13----------------------------------|
E|------------------------------------------------------------|

e|-------------------------------------------------------------------|
B|--------------------------11----11--13s14--11-----11---------------|
G|------------10-----10-12-----12---------------12-------------------|
D|--10-11-13------13-------------------------------------------------|
a|-------------------------------------------------------------------|
E|-------------------------------------------------------------------|

e|--------11-13---------11-13--------11-13--------11-13------------|
B|-11--14---------11-14--------11-14--------11--14-----------------|
G|-----------------------------------------------------------------|
D|-----------------------------------------------------------------|
a|-----------------------------------------------------------------|
E|-----------------------------------------------------------------|

e|----------------------------------13-------------|
B|-11-10-----------11-14----11---14----14--11------|
G|-------13-12-------------------------------------|
D|-------------------------------------------------|
a|-------------------------------------------------|

E|--------16-18p-------16-18-------16-18------16-18--18-18-18b----|
b|-16h19---------16h19-------16h19-------16h19--------------------|
g|----------------------------------------------------------------|
d|----------------------------------------------------------------|


AFTER BRIDGE SOLO
    sliding part
e|------------------------------------------------------|
B|-------------------------------------------------------|
G|--1/8/1/4/1--------------------8888/10101010--8888/10101010----| REPEAT 2X
D|--xxxxxxxxx---------{then}-----xxxx--x-x-x-x--xxxx--x-x-x-x----|
A|--1/8/1/4/1--------------------6666/-8-8-8-8--6666/-8-8-8-8----|
E|-------------------------------------------------------|

THEN GUItaR 2
E|---------------------------------------------------------|
B|---------7---------7---------7-------------------------|
G|-------8---8----8-----8----8-----8----------------------|
D|--------------------------------------------------------|

REPEAT CHO.. NA PAUSE
RHYME.PAUSE............WITHOUT REASON....
e|-------------------6666---8888------------------------------------|
B|-------------------7777---99999-----------------------------------|
G|-------------------6666---8888------------------------------------|
D|-------------------8888---10101010----------------------| Repeat--| 2x
A|-------------------6666---8888------------------------------------|
E|------------------------------------------------------------------|

Stuck in a...
e|--6X-6X-8X-8---8X--8X---8X----------8----10--8~-------------------------|
B|--8X-8X-8X-8---7X--7X---9X--------8----8--------------------------------|
G|--8X-8X-8X-8---6X--6X---8X------8---------------------------------------|
D|--8x-8x-8x-8x--8X--8X--10X----8-----------------------------------------| 
A|--8x-8x-8x-8x--6x--6x---8x---8------------------------------------------|
E|--6x-6x-6x-6x---------------6-------------------------------------------|


2.
POTOF GOLD--

Standard Tuning
Gtr 1 
e|------------------------------         --------------------|
B|------------------------------         --------------------|  
G|------------------------------         ----5---(5)-5--7----|
D|-13-13-13-13-6-6-6-6/8-8-8-8-- 4x then ---6--(6)---6--8----|
A|-13-13-13-13-6-6-6-6/8-8-8-8--         --6---------6--8----|
E|-11-11-11-11-4-4-4-4/6-6-6-6--         -4----------4--6----|
   .  .  .  .  . . . . . . . .

Gtr 1 Who wrote the rules that God made
e|----------------------------------------          --------------------------|
B|----------------------------------------          --------------------------|
G|----------------------------------------          --------------------------|
D|-1313131313131313-x-66666666-/88888888-  3x then  1313131313131313--6~--8---|
A|-1131313131313133-x-66666666-/88888888-           1313131313131313--6~--8---|
E|-1111111111111111-x-44444444-/66666666-           1111111111111111--4~--6---|
   .   .   .   .    . . . .     . . . .              . . . . . . . .  
 
Chorus
Gtr 1 Do you know, do you know
e|-----------------------------------------         ---------------------------------|
B|-----------------------------------------         ---------------------------------|
G|-----------------------8~-888------------ 3x then ----------------------8~88888888-|
D|-10~-101010-x-6~-666-x-8~-888-x-8~888----         -10~101010-x-6~-666-x-8~88888888-|
A|-10~-101010-x-6~-666-x-6~-666-x-8~888----         -10~101010-x-6~-666-x-6~66666666-|
E|-8~--8-8-8--x-4~-444-x--------x-6~666----         -8~-8-8-8--x-4~-444-x------------|
       . . .       ...     ...

Do Verse Riff 2x
Repeat:Verse 1
Then Chorus

Bridge

Gtr 1
  know..oh..ohh.ohh..ohh
e|------------------------P-------------------------      --------------|     
B|------------------------A-------------------------      --------------|
G|------------------------U-------------------------      ----(7)--9~---|
D|-10--8--6--8--10--8--6--S--10--8--6--8--10~--8~--- Then ---(8)---10~--|
A|-10--8--6--8--10--8--6--E--10--8--6--8--10~--8~---      --(8)----10~--|
E|-8---6--4--6--8---6--4--D--8---6--4--6--8~---6~---      -(6)-----8~---|
   .   .  .  .  .   .  .     .   .  .  .
Gtr 1
e|--------------------------------------------------------------|
B|-x-8b-x-8b-x-8b-x-8b--x-4b-x-4b-x-4b-x-4b-x-6b-x-6b-x-6b-x-6b-|
G|--------------------------------------------------------------| Repeat 4x
D|--------------------------------------------------------------|
A|--------------------------------------------------------------|
E|--------------------------------------------------------------|

Then Chorus:Bass Solo (techno sounding)
G|-----------------------------------------|
D|-----------------------------------------|
A|-66666666-----------66666666-------------|
E|----------4444-6666----------4444-66666--|

Gtr 1 Enters
e|-------------------------|
B|-------------------------|
G|---------------7~--7~----|
D|-10--6--8--10--6~--8~----|
A|-10--6--8--10--6~--8~----|
E|-8---4--6--8---4~--6~----|
   .   .  .  .  

Repeat Chorus
Then Intro

Last Chord

e|--------|
B|--------|
G|--------|
D|-13-----|
A|-13-----|
E|-11-----|

3.PASS

4.
DEFINE





Intro

e|---------------------------------------------------------|
B|---------------------------------------------------------|
G|-666~-666666666666-666~-666666666---666~-66666666666666--|
D|-666~-666666666666-666~-666666666---666~-66666666666666--|
A|-444~-444444444444-444~-444444444---444~-44444444444444--|
E|---------------------------------------------------------|
                                



Chorus 
e|----------------------------------|
B|----------------------------------|
G|--666666----------2222222---------|
D|--666666-6666666--2222222-444444--| 2x
A|--444444-6666666--1111111-444444--|
E|---------4444444----------222222--|


INTERLUDE

GUITAR1

e|----------6------------------------6-------|
B|---6--9-------6---9---------6--9------6-9--|
G|-6----------------------6------------------|  4X
D|-------------------------------------------| 
A|-------------------------------------------|
E|-------------------------------------------|

Guitar 2 
e|----------------------------------|
B|----------------------------------|
G|--666666----------2222222---------|
D|--666666-6666666--2222222-444444--| 2x
A|--444444-6666666--1111111-444444--|
E|---------4444444----------222222--|





Verse  

e|--------------------|
B|--------------------|
G|--6~/6~-/2~---------|  2X
D|--6~/6~-/2~---4~----|
A|--4~/3~-/1~---4~----|
E|--------------2~----|

REFRAIN

e|---------------------------------|
B|---------------------------------|
G|--66666--------------------------|
D|--66666---66666---88888---44444--| 2x
A|--44444---66666---88888---44444--|
E|----------44444---66666---22222--|

     

Repeat Chorus
INTERLUDE

Bridge

e|-------------------------------|-----------------------------------|
B|-------------------------------|-----------------------------------|
G|-----------------66666---------|-----------------------------------|
D|---88888--44444--66666--66666--|--8888-4444--44-44444---6666666666-|
A|---88888--44444--44444--66666--|--8888-4444--44-44444---6666666666-|
E|---66666--22222---------44444--|--6666-2222--22-22222---4444444444-|



5.
LIES IN MY ULO


guitar1
e---------------------------------------------------------|
b---7-7---------------------------------------------------|
g------9-9-9---6-6-6-6-----7-7----------------------------|
d-----------------------------9-9-9-7-7-7-----------------|2x
a---------------------------------------------------------|
E---------------------------------------------------------|
guitar2 at the 3rd tym
e------------------------------------------------|
b------------------------------------------------|
g--44444444444-----------------------------------|
d--44444444444-5555555555------------------------|
a--22222222222-55555555555-----------------------|
E--------------33333333333-----------------------|

VERSE- Bm G


Tonight don't let me fall asleep
e--------------------------------------------------|x
b--------------------------------------------------|x
g--44444444444-------------------------------------|x
d--44444444444-5555555555--------------------------|x
a--22222222222-55555555555-------------------------|x
E--------------33333333333-------------------------|x
If i do, please wake me up
e--------------------------------------------------|x
b--------------------------------------------------|x
g--44444444444-------------------------------------|x
d--44444444444-5555555555--------------------------|x
a--22222222222-55555555555-------------------------|x
E--------------33333333333-------------------------|x

Cos it comes like a thief in the night
e--------------------------------------------------|x
b--------------------------------------------------|x
g--44444444444-------------------------------------|x
d--44444444444-5555555555--------------------------|x
a--22222222222-55555555555-------------------------|x
E--------------33333333333-------------------------|x
You never know
e--------------------------------------------------|x
b--------------------------------------------------|x
g--44444444444-------------------------------------|x
d--44444444444-5555555555--------------------------|x
a--22222222222-55555555555-------------------------|x
E--------------33333333333-------------------------|x

 INTRO
guitar1
e---------------------------------------------------------|
b---7-7---------------------------------------------------|
g------9-9-9---6-6-6-6-----7-7----------------------------|
d-----------------------------9-9-9-7-7-7-----------------|2x
a---------------------------------------------------------|
E---------------------------------------------------------|
g2
e------------------------------------------------|
b------------------------------------------------|
g--44444444444-----------------------------------|
d--44444444444-55555555555-----------------------|
a--22222222222-55555555555-----------------------|
E--------------33333333333-----------------------|

repeat verse
Tonight don't let me fall apart
If i do, please pick me up
Cos it comes like a thief in the night
You never know

INTERLUDE-D G D A D F#m D A
e--------------------------------------------------------|
b--------------------------------------------------------|
g----------121212121212----------141414141414------------|
d-12-12-12-121212121212-12-12-12-141414141414------------|
a-12-12-12-101010101010-12-12-12-121212121212------------|
E-10-10-10--------------10-10-10-------------------------|

e--------------------------------------------|
b--------------------------------------------|
g----------111111111-----------141414141414--|
d-12-12-12-111111111--12-12-12-141414141414--|
a-12-12-12-99999999---12-12-12-121212121212--|
E-10-10-10------------10-10-10---------------|

CHORUS- D G Em G
Cos tonight i'll think about the words you said
Tonight i'll think about the lies in my head

e------------------------------------------------|
b------------------------------------------------|
g--77777777777-----------------------------------|
d--77777777777-55555555555--2222222222--55555555-|2x
a--55555555555-55555555555--2222222222--55555555-|
E--------------33333333333--0000000000--33333333-|

VERSE 2 repeat verse

Tonight don't even bother me
Cos i won't even be here
So tonight just let me go
And think until my fingers bleed

solo
bass
e-------------------------------------------------------|
b-------------------------------------------------------|
g-------------------------------------------------------|
d-------0------0------0---------------------------------|
a--2---------2---2--------------------------------------|
E-----0---0---------0-----------------------------------|

guitar1
e---------------------------------------------------------|
b---7-7---------------------------------------------------|
g------9-9-9---6-6-6-6-----7-7----------------------------|
d-----------------------------9-9-9-7-7-7-----------------|2x
a---------------------------------------------------------|
E---------------------------------------------------------|

e-------------------------------------------------------|
b--7-7-7-7--8-8-8-8--10-10------------------------------|
g--------------------------7-7-7-7-7--9-9-9-------------|
d-------------------------------------------------------|
a-------------------------------------------------------|
E-------------------------------------------------------|

e-------------------------------------------------------|
b--7-7--------------------------------------------------|
g------9-9-9---6---7-7----------------------------------|
d------------------------9-9-9---7-7--9-----------------|
a-------------------------------------------------------|
E-------------------------------------------------------|

THEN - D G D A D F#m D A
e--------------------------------------------------------|
b--------------------------------------------------------|
g----------121212121212----------141414141414------------|
d-12-12-12-121212121212-12-12-12-141414141414------------|
a-12-12-12-101010101010-12-12-12-121212121212------------|
E-10-10-10--------------10-10-10-------------------------|

e--------------------------------------------|
b--------------------------------------------|
g----------111111111-----------141414141414--|
d-12-12-12-111111111--12-12-12-141414141414--|
a-12-12-12-99999999---12-12-12-121212121212--|
E-10-10-10------------10-10-10---------------|


CHORUS2 D G Em G
Tonight i'll think about the words you said
Tonight i'll think about the lies in my head



REPEAT VERSE REF INTERLUDE END



6.
DEHADO



Intro-

e|----6----4------6--------|    |--4~----|

b|--4----4-----4----4------|    |--------|

g|-------------------------|7x  |--------|

D|-------------------------|    |--------|

A|-------------------------|    |--------|

E|-------------------------|    |--------|



Verse1

    

e|------4--|---------|-----4--|---------|

b|---------|---------|--------|---------|

g|---------|------3--|--------|------3--|

D|---------|----5----|--------|----5----|

A|----6----|--3------|---6----|--3------|

E|--4------|---------|-4------|---------|





e|--------|--------|--------|--------|

B|--------|------6-|-----8~-|-9~-----|

G|------6-|--------|-----8~-|-8~-----|

D|----6---|--------|---8----|-8~-----|

A|--4-----|---8----|-6------|--------|

E|--------|-6------|--------|--------|



Refrain-

    pm         pm            pm      pm

e|----------------------|----------------------|

B|----------------------|----------------------|

G|-----------55555555---|-----------55555555---|

D|-33333333--55555555---|-33333333--55555555---|

A|-33333333--33333333---|-33333333--33333333---|

E|-11111111-------------|-11111111-------------|



     pm         pm            pm      pm

e|----------------------|----------------------|

B|----------------------|----------------------|

G|-33333333--66666666---|-33333333--66666666---|

D|-33333333--66666666---|-33333333--66666666---|

A|-11111111--44444444---|-11111111--44444444---|

E|----------------------|----------------------|



     pm         pm            pm      pm

e|----------------------|----------------------|

B|----------------------|----------------------|

G|-----------55555555---|-----------55555555---|

D|-33333333--55555555---|-33333333--55555555---|

A|-33333333--33333333---|-33333333--33333333---|

E|-11111111-------------|-11111111-------------|



    pm         pm            

e|----------------------|-----------------------------------|

B|----------------------|------------------------999999-----|

G|-33333333--66666666---|-333333--6666666-888888-888888-----|

D|-33333333--66666666---|-333333--6666666-888888-888888-----|

A|-11111111--44444444---|-111111--4444444-666666-666666-----|

E|----------------------|-----------------------------------|



Chorus1

e|-------------------------|   |-------------------|

B|-------------------------|   |--2222222--3333333-|

G|------------55555555555--|   |--3333333--6666666-|

D|-6666666666-55555555555--|3X |--3333333--6666666-|

A|-6666666666-33333333333--|   |--1111111--4444444-|

E|-4444444444--------------|   |-------------------|







Interlude1





Guitar1

e|----------33-444---666-----|

B|-444--666--------------44--|

G|---------------------------|4X

D|---------------------------|

A|---------------------------|

E|---------------------------|



ExtraGuitaR

e|----------------------|----------------------|

B|----------------------|----------------------|

G|-----------55555555---|-----------55555555---|

D|-33333333--55555555---|-33333333--55555555---|

A|-33333333--33333333---|-33333333--33333333---|

E|-11111111-------------|-11111111-------------|





e|----------------------|----------------------|

B|----------------------|----------------------|

G|-33333333--66666666---|-33333333--66666666---|

D|-33333333--66666666---|-33333333--66666666---|

A|-11111111--44444444---|-11111111--44444444---|

E|----------------------|----------------------|





Verse2

   

e|----------------------------------------------------------------------|

B|------------------------------------------------------------99999999--| 

G|-----------5-5-5-----------5-5-5---3-3-3---6-6-6---88888888-88888888--|2x

D|-66-6-6-6--5-5-5---6-6-6---5-5-5---3-3-3---6-6-6---88888888-88888888--|

A|-66-6-6-6--3-3-3---6-6-6---3-3-3---1-1-1---4-4-4---66666666-66666666--|

E|-44-4-4-4----------4-4-4----------------------------------------------|   



Chorus2

e|-------------------------|   |-------------------|

B|-------------------------|   |--2222222--3333333-|

G|------------55555555555--|   |--3333333--6666666-|

D|-6666666666-55555555555--|3X |--3333333--6666666-|

A|-6666666666-33333333333--|   |--1111111--4444444-|

E|-4444444444--------------|   |-------------------|





Chorus3

   pm  pm  pm   pm  pm pm     pm

e|---------------------------------------|         |-------------------|

B|------------------------4------4-------|         |--2222222--3333333-|

G|--------------55-555-55-5---55-5-------|         |--3333333--6666666-|

D|-66-666-666-6-55-555-55-5---55-5-------|3X       |--3333333--6666666-|

A|-66-666-666-6-33-333-33-----33---------|         |--1111111--4444444-|

E|-44-444-444-4--------------------------|         |-------------------|





Outro-



Guitar1

e|----------33-444---666-----|

B|-444--666--------------44--|

G|---------------------------|8x

D|---------------------------|

A|---------------------------|

E|---------------------------|



ExtraGuitaR 2x

e|----------------------|----------------------|

B|----------------------|----------------------|

G|-----------55555555---|-----------55555555---|

D|-33333333--55555555---|-33333333--55555555---|

A|-33333333--33333333---|-33333333--33333333---|

E|-11111111-------------|-11111111-------------|





e|----------------------|----------------------|

B|----------------------|----------------------|

G|-33333333--66666666---|-33333333--66666666---|

D|-33333333--66666666---|-33333333--66666666---|

A|-11111111--44444444---|-11111111--44444444---|

E|----------------------|----------------------|





Guitar1

Outro2

e|----6----4------6--------|----6----4------6--------|    

b|--4----4-----4----4------|--4----4-----4----4------|     

g|-------------------------|-------------------------|Do until end

D|-------------------------|-------------------------|    

A|-------------------------|-------------------------|    

E|-------------------------|-------------------------|    

7.
Up In The Heavens Tab by Hilera, www.Ultimate-Guitar.Com

by rakitahz_03@yahoo.com   add nyo naman sa friendster..

verse-C#5 D5 E5 F#5
   PM              PM            PM            PM
e--------------------------------------------------------------------|
b--------------------------------------------------------------------|
g--66x-8x8x8x8x8x8-77x-7x7x7x7x7-99x-9x9x9x9x-1111x-11x11x11x11x11x--|
d--66x-8x8x8x8x8x8-77x-7x7x7x7x7-99x-9x9x9x9x-1111x-11x11x11x11x11x--|
a--44x-4x4x4x4x4x4-55x-5x5x5x5x5-77x-7x7x7x7x-9-9x---9x-9x-9x-9x-9x--|
E--------------------------------------------------------------------|
If i could see the light then i'm not so blind
I will realize
That i have become one of them
I will realize

Ref-D5 E5 F#5
                             x  x  x  x
E--------------------------------------------------|
B--------------------------------------------------|
G---7~/9~/11~---7~/9~/11~---11-11-11-11------------|
D---7~/9~/11~---7~/9~/11~---11-11-11-11------------|4x
A---5~/7~/9~----5~/7~/9------9-9---9--9------------|
E--------------------------------------------------|

Away from reality
I indulge myself, indulge myself
To live, to try to fight
To gain

Cho-F#5 A B

Fly up the heavens so high
E------------------------------------|
B------------------------------------|
G------------------------------------|
D--4~----7~----9~--------------------|
A--4~----7~----9~--------------------|
E--2~----5~----7~--------------------|
Fly up the heavens so high
E------------------------------------|
B------------------------------------|
G------------------------------------|
D--4~----7~----9~--------------------|
A--4~----7~----9~--------------------|
E--2~----5~----7~--------------------|

interlude
E------------------------------------------------------------------------|
B------------------------------------------------------------------------|
G-----------4-4h6-4-----------6-6h7-6---------------6-7/9-7-6--9/11-11---|
D-4-4-4-6-7---------7-666-7-9--------6--6-6-6-7-6-9----------------------|
A------------------------------------------------------------------------|
E------------------------------------------------------------------------|

repeat verse ref and chorus

8.
ALL OF DIS

intro
e--------------------------------------------|
b-----2-----2-------2------2-----------------|
g---------4---2----------4---2---------------|
D--------------------------------------------|
A---0---0---------0----0---------------------|
E--------------------------------------------|
                                                        2x
e--------------------------------------------|
b-----2-----2-------2------2-----------------|
g---------4---2----------4---2---------------|
D--------------------------------------------|
A--------------------------------------------|
E---0---0-------4------4---------------------|

then g2 enters
2x
e-----------------------------------------------------|
b-----------------------------------------------------|
g-----------------------------------------------------|
D---7777777777777----22222222-66666666----------------|
A---7777777777777----22222222-66666666----------------|
E---5555555555555----00000000-44444444----------------|
g2- A E G#5

verse- 
All the time
Doing nothing, getting nothing
e--------------------------------------------|
b-----2-----2-------2------2-----------------|
g---------4---2----------4---2---------------|
D--------------------------------------------|
A---0---0---------0----0---------------------|
E--------------------------------------------|
                                                        
e--------------------------------------------|
b-----2-----2-------2------2-----------------|
g---------4---2----------4---2---------------|
D--------------------------------------------|
A--------------------------------------------|
E---0---0-------4------4---------------------|
Sometimes
Fishing something, getting nothing
e--------------------------------------------|
b-----2-----2-------2------2-----------------|
g---------4---2----------4---2---------------|
D--------------------------------------------|
A---0---0---------0----0---------------------|
E--------------------------------------------|
                                                        
e--------------------------------------------|
b-----2-----2-------2------2-----------------|
g---------4---2----------4---2---------------|
D--------------------------------------------|
A--------------------------------------------|
E---0---0-------4------4---------------------|
From me
Diamond rings are for earrings only
e--------------------------------------------|
b-----2-----2-------2------2-----------------|
g---------4---2----------4---2---------------|
D--------------------------------------------|
A---0---0---------0----0---------------------|
E--------------------------------------------|
                                                        
e--------------------------------------------|
b-----2-----2-------2------2-----------------|
g---------4---2----------4---2---------------|
D--------------------------------------------|
A--------------------------------------------|
E---0---0-------4------4---------------------|
Too bad
It's difficult to fall
e--------------------------------------------|
b-----2-----2-------2------2-----------------|
g---------4---2----------4---2---------------|
D--------------------------------------------|
A---0---0---------0----0---------------------|
E--------------------------------------------|
                                                        
e--------------------------------------------|
b-----2-----2-------2------2-----------------|
g---------4---2----------4---2---------------|
D--------------------------------------------|
A--------------------------------------------|
E---0---0-------4------4---------------------|

chorus- c#5 A5 E5 f#5

                                                        
e------------------------------------------------------------------|
b------------------------------------------------------------------|
g-----66666666-----------------------------------------------------|
D-----66666666---777777777---22222222-444444444--------------------|
A-----444444444--777777777---22222222-444444444--------------------|
E----------------555555555---00000000-222222222--------------------|

Til one of these fall down on me
And it's a wasted time

then -sabay
e--------------------------------------------|
b-----2-----2-------2------2-----------------|
g---------4---2----------4---2---------------|
D--------------------------------------------|
A---0---0---------0----0---------------------|
E--------------------------------------------|
                                                        2x
e--------------------------------------------|
b-----2-----2-------2------2-----------------|
g---------4---2----------4---2---------------|
D--------------------------------------------|
A--------------------------------------------|
E---0---0-------4------4---------------------|


2x
e-----------------------------------------------------|
b-----------------------------------------------------|
g-----------------------------------------------------|
D---7777777777777----22222222-66666666----------------|
A---7777777777777----22222222-66666666----------------|
E---5555555555555----00000000-44444444----------------|

repeat verse
chorus


9.PILIT

10.SUNGRASS

Intro-



e|-------------------------|-------------------------| 

b|-7-----7---77---7--------|--5---5---55---5---------|      

g|--7--P-7-P-77-P-7--------|--6-P-6-P-66-P-6---------|

D|---9---9---99---9--------|--7---7---77---7---------|    

A|-------------------------|-------------------------|    

E|-------------------------|-------------------------|  





e|-------------------------|-------------------------| 

b|-7-----7---77---7--------|--5---5------------------|      

g|--7--P-7-P-77-P-7--------|--6-P-6--P---------------|

D|---9---9---99---9--------|--7---7------------------|    

A|-------------------------|-------------------------|    

E|-------------------------|-------------------------| 



Not yet sure...

e|--------5--------------|   |--------3-----------------| 

b|------------------8----|   |--------------------5-----|      

g|-----------------------|   |--------------------------|

D|----5-------- 5--------|2X |---4------------4---------|  2X  

A|--7---7-----7---7------|   |-5----5-------5---5-------|    

E|-----------------------|   |--------------------------|  



    

    E7sus                 B      C

e|---------------------|-------------------------| 

b|-101010101010--------|-------------------------|      

g|-777777777777--------|-------------------------|

D|-999999999999--------|-9999--10101010----------|  2X  

A|-777777777777--------|-9999--10101010----------|    

E|---------------------|-7777--88888888----------|  



Verse1

    

    E7sus                 B      C

e|---------------------|-------------------------| 

b|-101010101010--------|-------------------------|      

g|-777777777777--------|-------------------------|

D|-999999999999--------|-9999--10101010----------|  2X  

A|-777777777777--------|-9999--10101010----------|    

E|---------------------|-7777--88888888----------|  





Interlude1



 

Not yet sure...

e|---------------------------------8-----8----8------| 

b|-------------------------------8-----8-----8-------|      

g|---------------77---7---7-h9-----------------------|

D|---99---99---7----9---9----------------------------|    

A|---77------7---------------------------------------|    

E|---------------------------------------------------|  





e|--------------------------8-----8----8------| 

b|----------------------8-8-----8-----8-------|      

g|---------------77---------------------------|

D|---99---99---7------------------------------|    

A|---77------7--------------------------------|    

E|--------------------------------------------|







Verse1

    

    E7sus                 B      C

e|---------------------|-------------------------| 

b|-101010101010--------|-------------------------|      

g|-777777777777--------|-------------------------|

D|-999999999999--------|-9999--10101010----------|  2X  

A|-777777777777--------|-9999--10101010----------|    

E|---------------------|-7777--88888888----------|    







Chorus



e|------------------------------------------------------------------| 

b|------------------------------------------------------------------|      

g|-------------------------5555555---------------------5555555------|

D|-xxxx-5555555--2222222---5555555--5555555--2222222---3333333------|    

A|-xxxx-5555555--2222222---3333333--5555555--2222222---3333333------|    

E|-xxxx-3333333--0000000------------3333333--0000000----------------|  





Interlude2



e|---------------------------------------------| 

b|---------------------------------------------|      

g|---------------------------------------------|

D|-22-222-s-44-444-s--77-7777---99999999--- ---| 2x   

A|---------------------------------------------|    

E|---------------------------------------------|  





e|-----------------------------------------------------------| 

b|--8888-s-777-s-888-s-1010-88-8777--7-888-5-3^3^5-----------|      

g|-----------------------------------------------------------|

D|-----------------------------------------------------------|    

A|-----------------------------------------------------------|    

E|-----------------------------------------------------------|    



e|----------------------------------------------------------------| 

b|--8888-s-777-s-888-s-1010-1212/10-12-10101010-88-8^8^8^8-8/1010-|      

g|----------------------------------------------------------------|

D|----------------------------------------------------------------|    

A|----------------------------------------------------------------|    

E|----------------------------------------------------------------| 



Verse2

    

    E7sus                 B      C

e|---------------------|-------------------------| 

b|-101010101010--------|-------------------------|      

g|-777777777777--------|-------------------------|

D|-999999999999--------|-9999--10101010----------|  2X  

A|-777777777777--------|-9999--10101010----------|    

E|---------------------|-7777--88888888----------|    







Chorus



e|------------------------------------------------------------------| 

b|------------------------------------------------------------------|      

g|-------------------------5555555---------------------5555555------|

D|-xxxx-5555555--2222222---5555555--5555555--2222222---3333333------|    

A|-xxxx-5555555--2222222---3333333--5555555--2222222---3333333------|    

E|-xxxx-3333333--0000000------------3333333--0000000----------------|   







Interlude



BaSS

Acoustic Onlym heheh..

e|------------------------------------------------------------------| 

b|------------------------------------------------------------------|  

g|------------------------------------------------------------------|

D|-----4------2-----4------2--------4-------2-------4--------2------|    

A|---5------3------5------3--------5-------3-------5--------3-------|    

E|-33----11------3-------1--------3-------1------3---------1--------|



Guitar1  



e|----5b--7b----5-3---5b---7b----5-3--5b---7b----5-3---12b-10---------| 

b|-------------------------------------------------------------12-----|  

g|--------------------------------------------------------------------|

D|--------------------------------------------------------------------|    

A|--------------------------------------------------------------------|    

E|--------------------------------------------------------------------| 



e|-------------------------------------------| 

b|-------------------------333333333---------|  

g|--44444444---------------555555555---------|2x

D|--55555555---22222222----555555555---------|    

A|--55555555---22222222----333333333---------|    

E|--33333333---00000000----------------------| 



Chorus2



e|--------------------------------------------------------------| 

b|--------------------------------------------------------------|      

g|-------------------------5555555---------------------5555555--|

D|-xxxx-5555555--2222222---5555555--5555555--2222222---3333333--|    

A|-xxxx-5555555--2222222---3333333--5555555--2222222---3333333--|    

E|-xxxx-3333333--0000000------------3333333--0000000------------|

  

e|---------------------------| 

b|---------------------------| 

g|--7-7-7-7------------------|

D|--7-7-7-7-------5----------|    

A|--5-5-5-5-------5-P--------|    

E|----------------3----------|



P=hold

p=pull off

b=^=bend

s=/=slide

12.
SMILES

intro-Bb
e|----------------------------|
b|----------------------------|
g|----------------------------|
D|-8~-------------------------|
A|-8~-------------------------|
E|-6~-------------------------|


   Bb          Gm     Eb           F  2x
e|--------------------------------------------------------|
b|--------------------------------------------------------|
g|------------------8888888----1010101010-----------------|
D|-88888888-5555555-8888888---1010101010------------------|
A|-88888888-5555555-6666666--888888888--------------------|
E|-66666666-3333333---------------------------------------|

verse-Bb          Gm          Eb             F  2x 
e|-----------|---------------|------------|-------------|
b|-----------|---------------|------------|---------8~--|
g|-----------|---3~----------|---------8~-|-------------|
D|---------7~|---------------|------8~----|------10~----|2X
A|-----8~----|--------5~-----|--6~--------|---8~--------|
E|-6~--------|---3~----------|------------|-------------|


intro-Bb    Gm       Eb        F  2x
e|--------------------------------------------------------|
b|--------------------------------------------------------|
g|------------------8888888----1010101010-----------------|
D|-88888888-5555555-8888888---1010101010------------------|
A|-88888888-5555555-6666666--888888888--------------------|
E|-66666666-3333333---------------------------------------|



verse-Bb          Gm          Eb             F  2x 
e|-----------|---------------|------------|-------------|
b|-----------|---------------|------------|---------8~--|
g|-----------|---3~----------|---------8~-|-------------|
D|---------7~|---------------|------8~----|------10~----|2X
A|-----8~----|--------5~-----|--6~--------|---8~--------|
E|-6~--------|---3~----------|------------|-------------|


ref- come and take this mind and body.......
PM O PM O PM O PM PM O PM
e|---------------------------------------------------------------------|
b|---------------------------------------------------------------------|
g|--88888888--1010101010-------12X12X12X12X12X12X12X12X12X12X12X12X12X-|
D|--88888888--1010101010-------12X12X12X12X12X12X12X12X12X12X12X12X12X-|
A|--66666666--888888888--------10X10X10X10X10X10X10X10X10X10X10X10X10X-|
E|---------------------------------------------------------------------|

PM O PM O PM O PM PM O PM
e|---------------------------------------------------------------------|
b|---------------------------------------------------------------------|
g|--88888888--1010101010-------12X12X12X12X12X12--------12121212-------|
D|--88888888--1010101010-------12X12X12X12X12X12--------12121212-------|
A|--66666666--888888888--------10X10X10X10X10X10--------10101010-------|
E|---------------------------------------------------------------------|
   PM    O             
e|-----------3x-|   |------|
b|----------3-x-|   |------| 
g|---------3--x-|27X|------| 
D|-55-----5---x-|   |-3333-| 
A|-55----5----x-|   |-3333-|
E|-33---3-----x-|   |-1111-|

  Eb  F  Gm  2x then... G# (27 strokes)...F
repeat intro-verse... then do intro chords 4x 
 
OUTRO
e|-------------------------------------|
b|-------------------------------------|
g|---------888--101010-----------------|
D|-888-555-888--101010-----------------|
A|-888-555-666--8-8-8------------------|
E|-666-333-----------------------------|


   Bb5                            G5          
e|-----------------------------|-----------------------------|
b|-----------------------------|-----------------------------|
g|-----------------------------|-----------------------------|
D|-8-8-8-8888-8-8888-8-8888-8--|-5-5-5-5555-5-5555-5-5555-5--|
A|-8-8-8-8888-8-8888-8-8888-8--|-5-5-5-5555-5-5555-5-5555-5--|
E|-6-6-6-6666-6-6666-6-6666-6--|-3-3-3-3333-3-3333-3-3333-3--|


e|-----------------------------|----------------------------------------------|
b|-----------------------------|----------------------------------------------|
g|-8-8-8-8888-8-8888-8-8888-8--|----------------------------------------------|
D|-8-8-8-8888-8-8888-8-8888-8--|-12-12-12-12121212-12-12121212-12-12121212-10|
A|-6-6-6-6666-6-6666-6-6666-6--|-10-10-10-10101010-10-10101010-10-10101010-10|
E|-----------------------------|----------------------------------------------|



   Bbm          Gm     Eb           F  2x
e|--------------------------------------------------------|
b|--------------------------------------------------------|
g|------------------8888888----1010101010-----------------|
D|-88888888-5555555-8888888---1010101010------------------|
A|-88888888-5555555-6666666--888888888--------------------|
E|-66666666-3333333---------------------------------------|

guitar 2 sa outro 
e|-----------------------------------------|
b|--4-3----6------4--3------6-----4-3------|
g|------3-----3-3------3------33------3----|
D|-----------------------------------------|
A|-----------------------------------------|
E|-----------------------------------------|




12.
SMILES

intro-Bb
e|----------------------------|
b|----------------------------|
g|----------------------------|
D|-8~-------------------------|
A|-8~-------------------------|
E|-6~-------------------------|


   Bb          Gm     Eb           F  2x
e|--------------------------------------------------------|
b|--------------------------------------------------------|
g|------------------8888888----1010101010-----------------|
D|-88888888-5555555-8888888---1010101010------------------|
A|-88888888-5555555-6666666--888888888--------------------|
E|-66666666-3333333---------------------------------------|

verse-Bb          Gm          Eb             F  2x 
e|-----------|---------------|------------|-------------|
b|-----------|---------------|------------|---------8~--|
g|-----------|---3~----------|---------8~-|-------------|
D|---------7~|---------------|------8~----|------10~----|2X
A|-----8~----|--------5~-----|--6~--------|---8~--------|
E|-6~--------|---3~----------|------------|-------------|


intro-Bb    Gm       Eb        F  2x
e|--------------------------------------------------------|
b|--------------------------------------------------------|
g|------------------8888888----1010101010-----------------|
D|-88888888-5555555-8888888---1010101010------------------|
A|-88888888-5555555-6666666--888888888--------------------|
E|-66666666-3333333---------------------------------------|



verse-Bb          Gm          Eb             F  2x 
e|-----------|---------------|------------|-------------|
b|-----------|---------------|------------|---------8~--|
g|-----------|---3~----------|---------8~-|-------------|
D|---------7~|---------------|------8~----|------10~----|2X
A|-----8~----|--------5~-----|--6~--------|---8~--------|
E|-6~--------|---3~----------|------------|-------------|


ref- come and take this mind and body.......
PM O PM O PM O PM PM O PM
e|---------------------------------------------------------------------|
b|---------------------------------------------------------------------|
g|--88888888--1010101010-------12X12X12X12X12X12X12X12X12X12X12X12X12X-|
D|--88888888--1010101010-------12X12X12X12X12X12X12X12X12X12X12X12X12X-|
A|--66666666--888888888--------10X10X10X10X10X10X10X10X10X10X10X10X10X-|
E|---------------------------------------------------------------------|

PM O PM O PM O PM PM O PM
e|---------------------------------------------------------------------|
b|---------------------------------------------------------------------|
g|--88888888--1010101010-------12X12X12X12X12X12--------12121212-------|
D|--88888888--1010101010-------12X12X12X12X12X12--------12121212-------|
A|--66666666--888888888--------10X10X10X10X10X10--------10101010-------|
E|---------------------------------------------------------------------|
   PM    O             
e|-----------3x-|   |------|
b|----------3-x-|   |------| 
g|---------3--x-|27X|------| 
D|-55-----5---x-|   |-3333-| 
A|-55----5----x-|   |-3333-|
E|-33---3-----x-|   |-1111-|

  Eb  F  Gm  2x then... G# (27 strokes)...F
repeat intro-verse... then do intro chords 4x 
 
OUTRO
e|-------------------------------------|
b|-------------------------------------|
g|---------888--101010-----------------|
D|-888-555-888--101010-----------------|
A|-888-555-666--8-8-8------------------|
E|-666-333-----------------------------|


   Bb5                            G5          
e|-----------------------------|-----------------------------|
b|-----------------------------|-----------------------------|
g|-----------------------------|-----------------------------|
D|-8-8-8-8888-8-8888-8-8888-8--|-5-5-5-5555-5-5555-5-5555-5--|
A|-8-8-8-8888-8-8888-8-8888-8--|-5-5-5-5555-5-5555-5-5555-5--|
E|-6-6-6-6666-6-6666-6-6666-6--|-3-3-3-3333-3-3333-3-3333-3--|


e|-----------------------------|----------------------------------------------|
b|-----------------------------|----------------------------------------------|
g|-8-8-8-8888-8-8888-8-8888-8--|----------------------------------------------|
D|-8-8-8-8888-8-8888-8-8888-8--|-12-12-12-12121212-12-12121212-12-12121212-10|
A|-6-6-6-6666-6-6666-6-6666-6--|-10-10-10-10101010-10-10101010-10-10101010-10|
E|-----------------------------|----------------------------------------------|



   Bbm          Gm     Eb           F  2x
e|--------------------------------------------------------|
b|--------------------------------------------------------|
g|------------------8888888----1010101010-----------------|
D|-88888888-5555555-8888888---1010101010------------------|
A|-88888888-5555555-6666666--888888888--------------------|
E|-66666666-3333333---------------------------------------|

guitar 2 sa outro 
e|-----------------------------------------|
b|--4-3----6------4--3------6-----4-3------|
g|------3-----3-3------3------33------3----|
D|-----------------------------------------|
A|-----------------------------------------|
E|-----------------------------------------|


Добавлено: 29.11.2013
Другие материалы по этой песне:
  • Аккорды и текст

Страница создана 29.11.2013
http://primanota.ru/hilera/hilera-chords.htm
Привет, Гость.
Предлагаем пройти революционный курс по гитаре.
Подарок от PrimaNota.Ru, забирай!