PrimaNota.ru - самый крупный в мире бесплатный архив песенных текстов, аккордов, табулатур и нот


Hilera - All Of This - таба, видео

Регистрация Запомнить меня
Войти через:  Facebook Google Twitter Vk Yandex Mail.ru

Hilera - All Of This - таба, видео

Печатать
Просмотров: 77
Уроки эстрадного вокала в Санкт-Петербурге
intro
e--------------------------------------------|
b-----2-----2-------2------2-----------------|
g---------4---2----------4---2---------------|
D--------------------------------------------|
A---0---0---------0----0---------------------|
E--------------------------------------------|
                                                        2x
e--------------------------------------------|
b-----2-----2-------2------2-----------------|
g---------4---2----------4---2---------------|
D--------------------------------------------|
A--------------------------------------------|
E---0---0-------4------4---------------------|

then g2 enters
2x
e-----------------------------------------------------|
b-----------------------------------------------------|
g-----------------------------------------------------|
D---7777777777777----22222222-66666666----------------|
A---7777777777777----22222222-66666666----------------|
E---5555555555555----00000000-44444444----------------|
g2- A E G#5

verse- 
All the time
Doing nothing, getting nothing
e--------------------------------------------|
b-----2-----2-------2------2-----------------|
g---------4---2----------4---2---------------|
D--------------------------------------------|
A---0---0---------0----0---------------------|
E--------------------------------------------|
                                                        
e--------------------------------------------|
b-----2-----2-------2------2-----------------|
g---------4---2----------4---2---------------|
D--------------------------------------------|
A--------------------------------------------|
E---0---0-------4------4---------------------|
Sometimes
Fishing something, getting nothing
e--------------------------------------------|
b-----2-----2-------2------2-----------------|
g---------4---2----------4---2---------------|
D--------------------------------------------|
A---0---0---------0----0---------------------|
E--------------------------------------------|
                                                        
e--------------------------------------------|
b-----2-----2-------2------2-----------------|
g---------4---2----------4---2---------------|
D--------------------------------------------|
A--------------------------------------------|
E---0---0-------4------4---------------------|
From me
Diamond rings are for earrings only
e--------------------------------------------|
b-----2-----2-------2------2-----------------|
g---------4---2----------4---2---------------|
D--------------------------------------------|
A---0---0---------0----0---------------------|
E--------------------------------------------|
                                                        
e--------------------------------------------|
b-----2-----2-------2------2-----------------|
g---------4---2----------4---2---------------|
D--------------------------------------------|
A--------------------------------------------|
E---0---0-------4------4---------------------|
Too bad
It
Добавлено: 28.12.2013
Другие материалы по этой песне:
  • Аккорды и текст

Страница создана 28.12.2013
http://primanota.ru/hilera/all-of-this-chords.htm
Привет, Гость.
Предлагаем пройти революционный курс по гитаре.
Подарок от PrimaNota.Ru, забирай!