PrimaNota.ru - самый крупный в мире бесплатный архив песенных текстов, аккордов, табулатур и нот


Hilda Lizarazu - Dios - таба, видео

Регистрация Запомнить меня
Войти через:  Facebook Google Twitter Vk Yandex Mail.ru

Hilda Lizarazu - Dios - таба, видео

Печатать
Просмотров: 112
Cancion: Dios
Interprete: Hilda Lizarazu
Tabbed by: Andres.f3r@hotmail.com
Afinacion: Standard


D   Em   F#m     G   A   B   C#m     D
  T    T      ST   T   T   T      sT


*Arreglo 1
        D          F#m               Bm          G
E||--------------------------------------------------------------||
B||-10/----------------------------------------------------------||
G||----/7-777777--/6-666-/11-111111--4/-4444444-/7-7777777-------||
D||--------------------------------------------------------------||
A||--------------------------------------------------------------||
E||--------------------------------------------------------------||

*Arreglo 2
    G      A     Bm           G      A     Bm   F#m
E||----5------5-----5--3-2-------5------5------9-7-----||
B||-2h3-3--2h3-3-2h3-3--3-3---2h3-3--2h3-3--2h3---10---||
G||----------------------------------------------------||
D||----------------------------------------------------||
A||----------------------------------------------------||
E||----------------------------------------------------||

    G      A     Bm               E         F#m
E||----5------5-----5--3-2-----------------------------||
B||-2h3-3--2h3-3-2h3-3--3-3----------------------------||
G||----------------------------------------------------||
D||-------------------------------22222222--44444444---||
A||-------------------------------22222222--44444444---||
E||-------------------------------00000000--22222222---||


*Arreglo 3
E||-------------------------||
B||-------------------------||
G||-xx-xx-----7-------------||
D||-xx-xx--7h9--9v--9h11bp9-||
A||-xx-xx-------------------||
E||-xx-xx-------------------||


D                    F 
      llore              llore lo siento 
Bm                   G 
 me pasa cuando miro     mucha publicidad
D                    F 
      Los ves            estan tan contentos
Bm                   G
 en los afiches nuevos   de algun celular



D                    F
     en la calle         una sonrisa vale 
Bm                   G
  oro                    o el doble
D                    G
     en mi barrio        en la mañana hubo un 
Bm                   A
 robo                  violento



               G        A         Bm
    Si hay un Dios algo tiene q hacer si!
               G        A         Bm    f#m
por que algun Dios tiene que aparecer   ahora
               G        A         Bm    Em    f#m
           un Dios que se ponga la 10

Grite grite lo siento
me pasa cuando escucho un politico hablar
Arreglo 1
los ves estan tan contentos
y esa sonrisa no la juzga ningun tribunal

Por las calles estas tiras valen
poco o nada
en mi barrio esa gente tiene
hambre y bronca

arreglo 2
Si hay un Dios algo tiene q hacer si!
por que algun Dios tiene que aparecer ahora
un Dios que se ponga la 10

Arreglo 3
G A Bm f#m X2

Si hay un Dios algo tiene que hacer
Si hay un Dios tiene que aparecer
Dios

Lindo tema esta todo prolijo asi q no van a tener complicaciones
salu2!

www.lizarazu.com.ar
Добавлено: 19.03.2012
Другие материалы по этой песне:
  • Аккорды и текст

Страница создана 19.03.2012
http://primanota.ru/hilda-lizarazu/dios-chords.htm
Привет, Гость.
Предлагаем пройти революционный курс по гитаре.
Подарок от PrimaNota.Ru, забирай!