PrimaNota.ru - самый крупный в мире бесплатный архив песенных текстов, аккордов, табулатур и нот


Hilary Duff - Happy - текст песни, бас-таба, видео

Регистрация Запомнить меня
Войти через:  Facebook Google Twitter Vk Yandex Mail.ru

Hilary Duff - Happy - текст песни, бас-таба, видео

Печатать
Просмотров: 142
Авторы музыки: Rhett Lawrence, Mitchell Allan, Kara DioGuardi, Hilary Duff

Artist:Hilary Duff
Song title :Happy
Tabbed By: Valentino[chillyt100@yahoo.com

[Tuning: Standard - E,A,D,G] 


Intro
G|------------------|x4
D|------------------|
A|-5----8----3------|
E|----------------3-|


Verse One:
G|---------------------|x2
D|---------------------|
A|-5---5-7-8----3------|
E|-------------------3-|


Pre Chorus
G|-----------|x2
D|-----------|
A|-1x16-3x16-|
E|-----------|


Chorus
G|-------------------------|x2
D|-------------------------|
A|-5-5--8-8-8--1-1---------|
E|-----------------3-3-3-3-|


Verse Two:
G|---------------------|x3
D|---------------------|
A|-5---5-7-8----3------|
E|-------------------3-|


Pre Chorus
G|-----------|
D|-----------|
A|-1x16-3x16-|
E|-----------|


Chorus
G|-------------------------|x2|-----|
D|-------------------------|  |-----|
A|-5-5--8-8-8--1-1---------|  |-----|
E|-----------------3-3-3-3-|  |-3-3-|


Bridge
G|------------------------------|
D|------------------------------|
A|-1--------5--------1--------3-|
E|------------------------------|


|-Rest-|


G|-------------------------|
D|-------------------------|
A|-5---5-7-8----3----------|
E|-------------------3----3|


Chorus
G|-------------------------|x4
D|-------------------------|  
A|-5-5--8-8-8--1-1---------|  
E|-----------------3-3-3-3-|
Добавлено: 25.05.2012
Другие материалы по этой песне:
  • Аккорды и текст

Страница создана 25.05.2012
http://primanota.ru/hilary-duff/happy-chords.htm
Привет, Гость.
Предлагаем пройти революционный курс по гитаре.
Подарок от PrimaNota.Ru, забирай!