PrimaNota.ru - самый крупный в мире бесплатный архив песенных текстов, аккордов, табулатур и нот


Highly Suspect - Bath Salts - таба, видео

Регистрация Запомнить меня
Войти через:  Facebook Google Twitter Vk Yandex Mail.ru

Highly Suspect - Bath Salts - таба, видео

Печатать
Просмотров: 116
-------------------------------------------------------------------------------
                             BATH SALTS - Highly Suspect
-------------------------------------------------------------------------------


Tuning: Standard

INTRO
e|---------------------------------------------------------------------------|
B|---------------------------------------------------------------------------|
G|---------------------------------------------------------------------------|
D|-7--------3-------2-------6------------------------------------------------|     x3
A|-x-(x16)--x-(x8)--2-(x4)--x-(x4)-------------------------------------------|
E|-5--------1-------0-------4------------------------------------------------|


Verse 
0:27-0:45 Bass Only

0:45 "...THE ONES THAT I CAN HEAR IN MY HEAD!"
e|---------------------------------------------------------------------------|
B|---------------------------------------------------------------------------|
G|---------------------------------------------------------------------------|
D|-7--9--10-12--3~--2~--6~--7~-----------------------------------------------|
A|-x--x--x--x---x~--2~--x~--x~-----------------------------------------------|
E|-5--7--8--10--1~--0~--4~--5~-----------------------------------------------|


Chorus/Interlude
0:58 
e|-----------------------------------------------------------------------------|
B|-----10--------13------------------------------------------------------------|
G|-----12^-------15^-----5-5---------------------------------------------------|  x2
D|-7-7------7-7-------3/-x-x--2--6---------------------------------------------|
A|-x-x------x-x-------x/-3-3--2--x---------------------------------------------|
E|-5-5------5-5-------1/------0--4---------------------------------------------|


Verse 2
1:15-1:29 Drums only

1:29 (Heavy Phaser effect)
e|------------------|
B|------------------|
G|------------------|
D|-7~~~-------------|
A|-x~~~-------------|
E|-5~~~-------------|

1:31
e|---------------------------------------------------------------------------|
B|---------------------------------------------------------------------------|
G|---------------------------------------------------------------------------|
D|-7--9--10-12--3~--2~--6~--7~-----------------------------------------------|
A|-x--x--x--x---x~--2~--x~--x~-----------------------------------------------|
E|-5--7--8--10--1~--0~--4~--5~-----------------------------------------------|


Chorus/Interlude 2
1:45
e|-----------------------------------------------------------------------------|
B|-----10--------13------------------------------------------------------------|
G|-----12^-------15^-----5-5---------------------------------------------------|  
D|-7-7------7-7-------3/-x-x--2--6---------------------------------------------|
A|-x-x------x-x-------x/-3-3--2--x---------------------------------------------|
E|-5-5------5-5-------1/------0--4---------------------------------------------|


e|-----------------------------------------------------------------------------|
B|-----10--------16------------------------------------------------------------|
G|-----12^-------18^-----5-5---------------------------------------------------|  
D|-7-7------7-7-------3/-x-x--2--6---------------------------------------------|
A|-x-x------x-x-------x/-3-3--2--x---------------------------------------------|
E|-5-5------5-5-------1/------0--4---------------------------------------------|



Breakdown
2:02
e|---------------------------------------------------------------------------|
B|---------------------------------------------------------------------------|
G|----------------------------3----------------------------------------------|
D|-7--------2--------3--------x-(x6)--7--------------------------------------|     x3
A|-x-(x12)--2-(x12)--x-(x12)--5-------x-(x6)---------------------------------|
E|-5--------0--------1----------------9--------------------------------------|


Outro
2:33
e|---------------------------------------------------------------------------|
B|---------------------------------------------------------------------------|
G|---------------------------------------------------------------------------|
D|-7--------3-------2-------6------------------------------------------------|   x2  
A|-x-(x16)--x-(x8)--2-(x4)--x-(x4)-------------------------------------------|
E|-5--------1-------0-------4------------------------------------------------|

e|------------------|
B|------------------|
G|------------------|
D|-7-7--------------|
A|-x-x--------------|
E|-5-5--------------|


Добавлено: 02.03.2016
Другие материалы по этой песне:
  • Аккорды и текст

Страница создана 02.03.2016
http://primanota.ru/highly-suspect/bath-salts-chords.htm
Привет, Гость.
Предлагаем пройти революционный курс по гитаре.
Подарок от PrimaNota.Ru, забирай!