PrimaNota.ru - самый крупный в мире бесплатный архив песенных текстов, аккордов, табулатур и нот


High Tyde - Talk To Frank - бас-таба, видео

Регистрация Запомнить меня
Войти через:  Facebook Google Twitter Vk Yandex Mail.ru

High Tyde - Talk To Frank - бас-таба, видео

Печатать
Просмотров: 42
-------------------------------------------------------------------------------
                             TALK TO FRANK - High Tyde
-------------------------------------------------------------------------------
Tabbed by - Ben Heath
Tuning - Standard
Extra Info - Because I couldn't find a tab for High Tyde and this brilliant song, I 
thought I'd try to come up with my own. This is my first tab and I haven't done it to 
accurate beats, however it is very easy to pick up once listening to the song itself. 
Please also note that the bridge isn't exactly correct but I played it with the track 
and it fits nicely.


Intro:
G |-----------------------|
D |--10-10-6-6------------| (x4)
A |------------8-8--------|
E |-----------------------|

Verse 1:
G |-----------------------|
D |--10-10-6-6------------| (x4)
A |------------8-8--------|
E |-----------------------|

Instrumental Break:
G |--------------------------|
D |--10-10-6-6---------------| (x4)
A |------------8-8-8--8--8-8-|
E |--------------------------|

Verse 2:
G |-----------------------|
D |--10-10-6-6------------| (x4)
A |------------8-8--------|
E |-----------------------|

Pre-Chorus:
(No bass)

Chorus:
G |--------------------------|
D |--10-10-6-6---------------| (x4)
A |------------8-8-8--8--8-8-|
E |--------------------------|

Bridge:
G |---------------------------------------------------------------------|
D |--------------8-10--10--10--8-10-13--13--13--13-13-------------------| (x4)
A |11--11--11--11-------------------------------------------------------|
E |---------------------------------------------------13--13--13--13-13-|

Breakdown:
(No bass)

Chorus/Outro:
G |--------------------------|
D |--10-10-6-6---------------| (x8)
A |------------8-8-8--8--8-8-|
E |--------------------------|
Добавлено: 02.01.2016
Другие материалы по этой песне:
  • Аккорды и текст

Страница создана 02.01.2016
http://primanota.ru/high-tyde/talk-to-frank-chords.htm
Привет, Гость.
Предлагаем пройти революционный курс по гитаре.
Подарок от PrimaNota.Ru, забирай!