PrimaNota.ru - самый крупный в мире бесплатный архив песенных текстов, аккордов, табулатур и нот


High Speed Scene - The Iroc-z Song - таба, бас-таба, видео

Регистрация Запомнить меня
Войти через:  Facebook Google Twitter Vk Yandex Mail.ru

High Speed Scene - The Iroc-z Song - таба, бас-таба, видео

Печатать
Просмотров: 121
----------------------------------------------------------------------------
                          IROC Z SONG - High Speed Scene
----------------------------------------------------------------------------
Tabbed by: JTrivs

Tuning: Drop D

Verse Part 1
e|------------------------------------------------------|
B|------------------------------------------------------|
G|-6666-------------------------------------------------|
D|-6666--6666--8888--6666-------------------------------| x 2
A|-4444--6666--8888--6666-------------------------------|
E|-------6666--8888--6666-------------------------------|
 pm......................

Verse Part 2
e|------------------------------------------------------|
B|------------------------------------------------------|
G|-6666--------6668--6666--6666--------6668--5555-------|
D|-6666--6666--6668--6666--6666--6666--6668--5555-------|
A|-4444--6666--4446--4444--4444--6666--4446--3333-------|
E|-------6666--------------------6666-------------------|
 pm........................................

Chorus
e|-------------------------------------------------------|
B|-------------------------------------------------------|
G|-6666----------------------6666------------------------|
D|-6666--6666--8888--6468----6666--6666--8888--4444------|
A|-4444--6666--8888--6468----4444--6666--8888--4444------|
E|-------6666--8888--6468----------6666--8888--4444------|
  Hey, there's ego in my way...........

e|-------------------------------------------------|
B|-------------------------------------------------|
G|---66-xxxx---------------------------------------|
D|---66-xxxx--88-xxxx--44-xxxxxxxxxxx6-------------|
A|---44-xxxx--88-xxxx--44-xxxxxxxxxxx6-------------|
E|------------88-xxxx--44-xxxxxxxxxxx6-------------|
  Ready       Steady   These days are....


| /  slide up
| \  slide down
| h  hammer-on
| p  pull-off
| ~  vibrato
| +  harmonic
| x  Mute note

He Rocks his IROC-Z 
He rocks it well 
He rocks his Oakleys and his Oakley loaf from hell 
He's spinning donuts out in front of Taco Bell 
The girls are wanting him so bad and he can tell 

I shred for hella days 
You know I can 
For finger tapping yeah Van Halen is the man 
He's making fun because I play in marching band 
He's getting action while I get my farmer tan

Hey, there's ego in my way 
Lucky for me I have the patience of a saint 
Ready, steady, these days are high and heady 
There's so much more left to say 
But there's ego in my way 

He plays the ladies man 
He plays it cool 
I play my guitar and I play it by the rules 
You think you rock so hard I challenge you to duel 
After school after school after school 
Let me hear you say 

Hey, there's ego in my way 
Lucky for me I have the patience of a saint 
Ready, steady, these days are high and heady 
There's so much more left to say 
But there's ego in my way (there's ego in my way)
There's ego in my way (there's ego in my way)
There's ego in my way (there's ego in my way)

http://www.myspace.com/thehighspeedscene
=========================================================================
Добавлено: 18.07.2012
Другие материалы по этой песне:
  • Аккорды и текст

Страница создана 24.02.2012
http://primanota.ru/high-speed-scene/the-iroc-z-song-chords.htm
Привет, Гость.
Предлагаем пройти революционный курс по гитаре.
Подарок от PrimaNota.Ru, забирай!