PrimaNota.ru - самый крупный в мире бесплатный архив песенных текстов, аккордов, табулатур и нот


High Speed Scene - The I Roc Z Song - таба, видео

Регистрация Запомнить меня
Войти через:  Facebook Google Twitter Vk Yandex Mail.ru

High Speed Scene - The I Roc Z Song - таба, видео

Печатать
Просмотров: 28
--------------------------------------------------------------------------|
--------------------------------------------------------------------------|
---------8-8-8-8---------5-5-5-5---------8-8-8-8---------5-5-5-5----------|
-5-3-5-8-8-8-8-8-8-8-8-8-5-5-5-5-5-3-5-8-8-8-8-8-8-8-8-8-5-5-5-5-5-3-5-8--|
-5-3-5-8-6-6-6-6-8-8-8-8-3-3-3-3-5-3-5-8-6-6-6-6-8-8-8-8-3-3-3-3-5-3-5-8--|
-5-3-5-8---------8-8-8-8---------5-3-5-8---------8-8-8-8---------5-3-5-8--|

------------------------------------------------------------------------|
------------------------------------------------------------------------|
-----5-5-----------5-5-----------------8-8-8-8---------5-5-5-5----------|
-6-6-5-5-3-3-5-6-6-5-5-8-8-8-8-8-8-8-8-8-8-8-8-8-8-8-8-5-5-5-5-5-3-5-8--|
-6-6-3-3-3-3-5-6-6-3-3-8-8-8-8-8-8-8-8-6-6-6-6-8-8-8-8-3-3-3-3-5-3-5-8--|
-6-6-----3-3-5-6-6-----8-8-8-8-8-8-8-8---------8-8-8-8---------5-3-5-8--|


--------------------------------------------------------------------------|
--------------------------------------------------------------------------|
---------8-8-8-8---------5-5-5-5---------8-8-8-8---------5-5-5-5----------|
-5-3-5-8-8-8-8-8-8-8-8-8-5-5-5-5-5-3-5-8-8-8-8-8-8-8-8-8-5-5-5-5-5-3-5-8--|
-5-3-5-8-6-6-6-6-8-8-8-8-3-3-3-3-5-3-5-8-6-6-6-6-8-8-8-8-3-3-3-3-5-3-5-8--|
-5-3-5-8---------8-8-8-8---------5-3-5-8---------8-8-8-8---------5-3-5-8--|

------------------------------------------------------------------------|
------------------------------------------------------------------------|
-----5-5-----------5-5-----------------8-8-8-8---------5-5-5-5----------|
-6-6-5-5-3-3-5-6-6-5-5-8-8-8-8-8-8-8-8-8-8-8-8-8-8-8-8-5-5-5-5-5-3-5-8--|
-6-6-3-3-3-3-5-6-6-3-3-8-8-8-8-8-8-8-8-6-6-6-6-8-8-8-8-3-3-3-3-5-3-5-8--|
-6-6-----3-3-5-6-6-----8-8-8-8-8-8-8-8---------8-8-8-8---------5-3-5-8--|

--------------------------------------------------------------------------------------------------|
--------------------------------------------------------------------------------------------------|
-8-8-8-8---------5-5-5-5---------8-8-8-8---------5-5-5-5---------4-4-4-4-4-4-4-4-4-4-4-4-4-4-4-4--|
-8-8-8-8-8-8-8-8-5-5-5-5-5-3-5-8-8-8-8-8-8-8-8-8-5-5-5-5-5-5-5-5-4-4-4-4-4-4-4-4-4-4-4-4-4-4-4-4--|
-6-6-6-6-8-8-8-8-3-3-3-3-5-3-5-8-6-6-6-6-8-8-8-8-3-3-3-3-5-5-5-5-2-2-2-2-2-2-2-2-2-2-2-2-2-2-2-2--|
---------8-8-8-8---------5-3-5-8---------8-8-8-8---------5-5-5-5----------------------------------|


SOLO
-------------------------------------------------|
-6b8-8-6-4-4b5-5-4--7-7-7-7-6-7-9-10-11-12-14/15-|
----------6--------------------------------------|
-------------------------------------------------|
-------------------------------------------------|
-------------------------------------------------|

---------------------------------------------------------------------|
-14-16-14h16h14------------------------------------------------------|
---------------16--13-16-15-13-----16-15-13b15b13-13-11-11-10-10\--4-|
------------------------------16-13----------------------------------|
---------------------------------------------------------------------|
---------------------------------------------------------------------|

-----------------------------------------------------------------|
-----------------------------------------------------------------|
-8-8-8-8---------5-5-5-5---------8-8-8-8---------5-5-5-5---------|
-8-8-8-8-8-8-8-8-5-5-5-5-5-3-5-8-8-8-8-8-8-8-8-8-5-5-5-5-5-3-5-8-|
-6-6-6-6-8-8-8-8-3-3-3-3-5-3-5-8-6-6-6-6-8-8-8-8-3-3-3-3-5-3-5-8-|
---------8-8-8-8---------5-3-5-8---------8-8-8-8---------5-3-5-8-|


-----------------------------------------------------------------|
-----------------------------------------------------------------|
-8-8-8-8---------5-5-5-5---------8-8-8-8---------5-5-5-5---------|
-8-8-8-8-8-8-8-8-5-5-5-5-5-3-5-8-8-8-8-8-8-8-8-8-5-5-5-5-5-3-5-8-|
-6-6-6-6-8-8-8-8-3-3-3-3-5-3-5-8-6-6-6-6-8-8-8-8-3-3-3-3-5-3-5-8-|
---------8-8-8-8---------5-3-5-8---------8-8-8-8---------5-3-5-8-|


------------------------------------------------------------------------|
------------------------------------------------------------------------|
-----5-5-----------5-5-----------------8-8-8-8---------5-5-5-5----------|
-6-6-5-5-3-3-5-6-6-5-5-8-8-8-8-8-8-8-8-8-8-8-8-8-8-8-8-5-5-5-5-5-3-5-8--|
-6-6-3-3-3-3-5-6-6-3-3-8-8-8-8-8-8-8-8-6-6-6-6-8-8-8-8-3-3-3-3-5-3-5-8--|
-6-6-----3-3-5-6-6-----8-8-8-8-8-8-8-8---------8-8-8-8---------5-3-5-8--|


-----------------------------------------------------------------------------------------|
-----------------------------------------------------------------------------------------|
-8-8-8-8---------5-5-5-5---------8-8-8-8---------5-5-5-5---------8-8-8-8---------5-5-5-5-|
-8-8-8-8-8-8-8-8-5-5-5-5-5-3-5-8-8-8-8-8-8-8-8-8-5-5-5-5-5-3-5-8-8-8-8-8-8-8-8-8-5-5-5-5-|
-6-6-6-6-8-8-8-8-3-3-3-3-5-3-5-8-6-6-6-6-8-8-8-8-3-3-3-3-5-3-5-8-6-6-6-6-8-8-8-8-3-3-3-3-|
---------8-8-8-8---------5-3-5-8---------8-8-8-8---------5-3-5-8---------8-8-8-8---------|
Добавлено: 15.12.2015
Другие материалы по этой песне:
  • Аккорды и текст

Страница создана 15.12.2015
http://primanota.ru/high-speed-scene/i-roc-z-song-chords.htm
Привет, Гость.
Предлагаем пройти революционный курс по гитаре.
Подарок от PrimaNota.Ru, забирай!