PrimaNota.ru - самый крупный в мире бесплатный архив песенных текстов, аккордов, табулатур и нот


High On Fire - Waste Of Tiamat - таба, видео

Регистрация Запомнить меня
Войти через:  Facebook Google Twitter Vk Yandex Mail.ru

High On Fire - Waste Of Tiamat - таба, видео

Печатать
Просмотров: 110
Авторы: Des Kensel, Matt Pike, Jeff Matz

Waste of Tiamat
by High on Fire
from Death is this Communion

Tabbed by Willothius:
[First song I ever put up here.. I think it's a shame how few decent tabs of HoF are out 
so I made this one a couple of days ago. I got the hang of it, and also made Rumors of 
Cyclopean Scape, Ethereal, and Return to NOD. You want something done? You just do it yourself!]


Tuning:C-F-Bb-Eb-G-C (low to high)

Riff 1:
||---------------------------------------------------|
||---------------------------2-----2-----------------|
||o--4-----4-----3-----3-----x-----x-----3-----3-----|
||---2-2-2-2-2-2-2-2-2-2-2-2-2-2-2-2-2-2-2-2-2-2-2-2-|
||o--2-2-2-2-2-2-2-2-2-2-2-2-2-2-2-2-2-2-2-2-2-2-2-2-|
||---0-----------0-----------0-----------0-----------|

					        [break 1]
---------------------------------------------------||    ---|
---------------------------------------------------||    ---|
--4-----4-----3-----3-----------------------------o||    ---|
--2-2-2-2-2-2-2-2-2-2-2-2-5-5-5-5-5-5-5---4---2----||    -2-|
--2-2-2-2-2-2-2-2-2-2-2-2-2-2-2-2-2-2-5---4---2---o||    -2-|
--0-----------0-----------3-----3-----3---2---0----||    -0-|
			        [/w Dist.......]
2x Riff 1 only clean
2x Riff 1 clean /w 2nd Gtr dist
Break 1


Riff 2:
||---------------------------------------------------------|
||---------------------------------------------------------|
||o--------------------------------------------------------|
||---9-9-9-9-9-9-8-8-8-8-8-8-12-12-12-12-12-12-8-8-8-8-8-8-|
||o--9-9-9-9-9-9-8-8-8-8-8-8-12-12-12-12-12-12-8-8-8-8-8-8-|
||---7-7-7-7-7-7-6-6-6-6-6-6-10-10-10-10-10-10-6-6-6-6-6-6-|

					         [break 2]
----------------------------------------------------||    ---|
----------------------------------------------------||    ---|
---------------------------------------------------o||    ---|
---9-9-9-9-9-9-8-8-8-8-8-8-5-5-5-5-5-5-5---4---2----||    -2-|
---9-9-9-9-9-9-8-8-8-8-8-8-5-5-5-5-5-5-5---4---2---o||    -2-|
---7-7-7-7-7-7-6-6-6-6-6-6-3-3-3-3-3-3-3---2---0----||    -0-|

4x Riff 2
Break 2
1x Riff 1 clean
4x Riff 2

Chorus:
||-----------------------------------------------------------|
||-----------------------------------------------------------|
||o----------------------------------------------------------|
||---14---14-14-14-14-9---9-9-9-9-8---8-8-8-8-12---12---12---|
||o--14---14-14-14-14-9---9-9-9-9-8---8-8-8-8-12---12---12---|
||---12---12-12-12-12-7---7-7-7-7-6---6-6-6-6-10---10---10---|
||				        TIAMAT!!
||-----------------------------------------------------------|
||-----------------------------------------------------------|
||o----------------------------------------------------------|
||-----------------------------------------------------------|
||o---7---7--7--7--7--5---4---5---7~~~~~~~~~-----------------|
||-----------------------------------------------------------|

                               [Only 1st time.................] [Chorus break...........]
--------------------------------|---------------------------||   ----------------------|
--------------------------------|---------------------------||   ----------------------|
--------------------------------|--------------------------o||   ----------------------|
---14---14-14-14-14-9---9-9-9-9-|-8---8-8-8-8--5---4---5----||   --9h8-8-8-8-8-9--5--5-|
---14---14-14-14-14-9---9-9-9-9-|-8---8-8-8-8--5---4---5---o||   --9h8-8-8-8-8-9--5--5-|
---12---12-12-12-12-7---7-7-7-7-|-6---6-6-6-6--3---2---3----||   --7h6-6-6-6-6-7--3--3-|
							|
--------------------------------|---------------------------||   ----------------------|
--------------------------------|---------------------------||   ----------------------|
--------------------------------|--------------------------o||   ----------------------|
--------------------------------|---------------------------||   --9h8-8-8-8-8-9--5--5-|
----7---7--7--7--7--5---4---5---|-7~~~~~~~~~~--2-----------o||   --9h8-8-8-8-8-9--5--5-|
--------------------------------|---------------------------||   --7h6-6-6-6-6-7--3--3-|
2x Chorus
2x Chorus break
1x Riff 1 clean
4x Riff 2
2x Chorus
4x Chorus break

Interlude:
|--------------------------------------------------------------------------|
|--------------------------------------------------------------------------|
|--------------------------------------------------------------------------|
|--------------------------------------------------------------------------|
|-7---7---7---10--9---6---7---7---7---12--10--9---7---7---7---10--9---6----|
|---0---0---0---0---0---0---0---0---0---0---0---0---0---0---0---0---0---0--|

-------------------------------------------------------|
-------------------------------------------------------|
-------------------------------------------------------|
-9h8-8-8-8-8-12h11-11-11-11-11-9h8-8-8-8-8-5---5---4---|
-9h8-8-8-8-8-12h11-11-11-11-11-9h8-8-8-8-8-5---5---4---|
-7h6-6-6-6-6-10h9--9--9--9--9--7h6-6-6-6-6-3---3---2---|

|--------------------------------------------------------------------------|
|--------------------------------------------------------------------------|
|--------------------------------------------------------------------------|
|--------------------------------------------------------------------------|
|-7---7---7---10--9---6---7---7---7---12--10--9---7---7---7---10--9---6----|
|---0---0---0---0---0---0---0---0---0---0---0---0---0---0---0---0---0---0--|

[Only 1st time...............................................]
------------------------------------------------------------|
------------------------------------------------------------|
------------------------------------------------------------|
-7-7-7-7-7-7-7-7---------------------------------5---4---1--|
-5-5-5-5-5-5-5-5-8---8---8---8---8---8---5---5---5---4---1--|
-----------------6---6---6---6---6---6---3---3---3---2------|

[2nd time.........................................
------------------------------------------------|
------------------------------------------------|
------------------------------------------------|
-7-7-7-7-7-7-7-7--------------------------------|
-5-5-5-5-5-5-5-5-8---8---8---8---8---8---5---5--|
-----------------6---6---6---6---6---6---3---3--|

............................................................]
------------------------------------------------------------|
------------------------------------------------------------|
------------------------------------------------------------|
-7-7-7-7-7-7-7-7---------------------------------5---4---2--|
-5-5-5-5-5-5-5-5-8---8---8---8---8---8---5---5---5---4---2--|
-----------------6---6---6---6---6---6---3---3---3---2------|

2x Interlude

Riff 3:
||----------------------------------------------------------------------------|
||----------------------------------------------------------------------------|
||o---------------------------------------------------------------------------|
||---14-14-14-14-14-14-14-14-14-14-14-14--------------------------------------|
||o--14-14-14-14-14-14-15-14-14-14-14-14-14-14-14-14-14-14-14-14-14-14-14-14--|
||---12-12-12-12-12-12-13-12-12-12-12-12-11-11-11-11-11-11-11-11-11-11-11-11--|

----------------------------------------------------------||
----------------------------------------------------------||
---------------------------------------------------------o||
----------------------------------------------------------||
--10-10-10-10-10-10-9-9-9-9-9-9-8-8-8-8-8-8-8-8-8-8-8-8--o||
--8--8--8--8--8--8--7-7-7-7-7-7-6-6-6-6-6-6-6-6-6-6-6-6---||



Riff 4:
||--------------------------------------------------------------|
||--------------------------------------------------------------|
||o-------------------------------------------------------------|
||--7-7-7-7-7-7-6-6-6-6-6-6-10-10-10-10-10-10-10-10-10-10-10-10-|
||o-5-5-5-5-5-5-4-4-4-4-4-4-8--8--8--8--8--8--8--8--8--8--8--8--|
||--------------------------------------------------------------|

------------------------------------------------------||
------------------------------------------------------||
-----------------------------------------------------o||
-7-7-7-7-7-7-6-6-6-10-10-10-5-5-5-5-5-5-5-5-5-5-5-5---||
-5-5-5-5-5-5-4-4-4-8--8--8--3-3-3-3-3-3-3-3-3-3-3-3--o||
------------------------------------------------------||

Riff5:
||---------------------------------------------------|
||---------------------------------------------------|
||o--------------------------------------------------|
||---------------------------------------------------|
||o-5-5-5-5-5-5-4-4-4-4-4-4-8-8-8-8-8-8-8-8-8-8-8-8--|
||--3-3-3-3-3-3-2-2-2-2-2-2-6-6-6-6-6-6-6-6-6-6-6-6--|

---------------------------------------------------||
---------------------------------------------------||
--------------------------------------------------o||
-------------------------0-0-0-0-0-0-0-0-0-0-0-0---||
-5-5-5-5-5-5-4-4-4-8-8-8-0-0-0-0-0-0-0-0-0-0-0-0--o||
-3-3-3-3-3-3-2-2-2-6-6-6---------------------------||

2x Riff 3
2x Riff 4
2x Riff 5
2x Riff 3
2x Chorus
2x Chorus break
4x Riff 2
2x Interlude
Break 2

THE END!!
Добавлено: 17.03.2012
Другие материалы по этой песне:
  • Аккорды и текст

Страница создана 17.03.2012
http://primanota.ru/high-on-fire/waste-of-tiamat-chords.htm
Привет, Гость.
Предлагаем пройти революционный курс по гитаре.
Подарок от PrimaNota.Ru, забирай!