PrimaNota.ru - самый крупный в мире бесплатный архив песенных текстов, аккордов, табулатур и нот


High On Fire - Rumors Of War - таба, видео

Регистрация Запомнить меня
Войти через:  Facebook Google Twitter Vk Yandex Mail.ru

High On Fire - Rumors Of War - таба, видео

Печатать
Просмотров: 118
Авторы: Des Kensel, Matt Pike, Jeff Matz

Rumors of War
by High on Fire
from Death is this Communion

Tabbed by Willothius.

[very nice and easy track, but the challenge lies in getting the right speed, since
what makes the album version so damn nice! The drums just roll aside the rumbling bass and
guitar. Slides not included! why? Well, you know Matt Pike, he's ALWAYS sliding about 
place... ]

Tuning: C-F-Bb-Eb-G-C

Riff 1:
|--------------------------------------------------------------|
|--------------------------------------------------------------|
|--------------------------------------------------------------|
|-9----------------------------7--9----------------------------|
|-7----2-2-2-2-2-2-2-2-2-2-2-2-5--7---2-2-2-2-2-2-2-2-2-2-2-2--|
|------0-0-0-0-0-0-0-0-0-0-0-0--------0-0-0-0-0-0-0-0-0-0-0-0--|

---------------------------------------------------------------|
---------------------------------------------------------------|
---------------------------------------------------------------|
-7--9---------------------------7--9---------------------------|
-5--7---2-2-2-2-2-2-2-2-2-2-2-2-5--7--2-2-2-2-2-2-2-2-2-2-2-2--|
--------0-0-0-0-0-0-0-0-0-0-0-0-------0-0-0-0-0-0-0-0-0-0-0-0--|

---------------------------------------------------------------|
---------------------------------------------------------------|
---------------------------------------------------------------|
-7-----------------------------9--7----------------------------|
-5-----5-5-5-5-5-5-5-5-5-5-5-5-7--5---5-5-5-5-5-5-5-5-5-5-5-5--|
---------------------------------------------------------------|

---------------------------------------------------------------|
---------------------------------------------------------------|
---------------------------------------------------------------|
-7--9---------------------------7--9---------------------------|
-5--7---2-2-2-2-2-2-2-2-2-2-2-2-5--7--2-2-2-2-2-2-2-2-2-2-2-2--|
--------0-0-0-0-0-0-0-0-0-0-0-0-------0-0-0-0-0-0-0-0-0-0-0-0--|
Riff 2:
|----------------------------------------------------|
|----------------------------------------------------|
|----------------------------------------------------|
|----7--6--------------------------------------------|
|-8--5--4--8--5--8---2-2-2-2-2-2-2-2-2-2-2-2-2-2-2-2-|
|-6--------6--3--6---0-0-0-0-0-0-0-0-0-0-0-0-0-0-0-0-|

                [break 1............................]         [break 2....]  [ending...]
|-------------------|---------------------------------|    ----------|    --------|
|-------------------|---------------------------------|    ----------|    --------|
|-------------------|---------------------------------|    ----------|    --------|
|----7-----10--9--7-|---------------------------------|    ----------|    -7------|
|-8--5--8--8---7--5-|-2-2-2-2-2-2-2-2-2-2-2-2-2-2-2-2-|    ----------|    -5------|
|-6-----6-----------|-0-0-0-0-0-0-0-0-0-0-0-0-0-0-0-0-|    ----------|    -5------|

1x Riff 1 Gtr I
1x Riff 1 Gtr I+II
1x Riff 1 Verse 1
1x Riff 2 /w break 1
1x Riff 2 /w break 2 

1x Riff 1 Verse 2
2x Riff 2 /w break 1 
1x Riff 1 Verse 3
1x Riff 2 /w break 1
1x Riff 2 /w break 2 

1x Riff 1 solo
1x Riff 2 /w break 1
1x Riff 2 /w break 2 

1x Riff 1 Verse 3
1x Riff 2 /w break 1
1x Riff 2 /w ending 
Добавлено: 06.05.2012
Другие материалы по этой песне:

Страница создана 29.02.2012
http://primanota.ru/high-on-fire/rumors-of-war-chords.htm
Привет, Гость.
Предлагаем пройти революционный курс по гитаре.
Подарок от PrimaNota.Ru, забирай!