PrimaNota.ru - самый крупный в мире бесплатный архив песенных текстов, аккордов, табулатур и нот


High On Fire - Return To Nod - таба, видео

Регистрация Запомнить меня
Войти через:  Facebook Google Twitter Vk Yandex Mail.ru

High On Fire - Return To Nod - таба, видео

Печатать
Просмотров: 150
Return to N.O.D.
by High on fire
from Death is this Communion

Tabbed by Willothius

[Don't get confused with the names of the riffs and the order of the parts; whats after
is the tabs itself, what's on the seperate lines, like '2x Riff 1' means play it 2
No solo's included, since THIS is already nearly impossible te hear what he's doing, let 
his awesome freakyness in the end where they just jam away, so it seems...]


Tuning: C-F-Bb-Eb-G-C

Intro riff:
|--------------|
|--------------|
|--------------|
|-2---5---2----|
|-0---3---0----|
|--------------|

Riff 1:
|-------------------------------------------------|
|-------------------------------------------------|
|-------------------------------------------------|
|-8-8-8-8-8-8-8\7-7-7-7-7-7\5-5-5-5-5-2---5---2---|
|-6-6-6-6-6-6-6\5-5-5-5-5-5\3-3-3-3-3-0---3---0---|
|-------------------------------------------------|

|-------------------------------------------------|
|-------------------------------------------------|
|-------------------------------------------------|
|-8-8-8-8-x-x-7-7-7-7-x-x-8-8-8-8-8-8-2---5---2---|
|-6-6-6-6-x-x-5-5-5-5-x-x-6-6-6-6-6-6-0---3---0---|
|-------------------------------------------------|

Riff 2:
|-------------------------------------------------|
|-------------------------------------------------|
|-------------------------------------------------|
|-5-5-5-5-5-5-5\4-4-4-4-4-4\2-2-2-2-2-2---5---2---|
|-6-6-6-6-6-6-6\5-5-5-5-5-5\3-3-3-3-3-0---3---0---|
|-------------------------------------------------|


|-------------------------------------------------|
|-------------------------------------------------|
|-------------------------------------------------|
|-5-5-5-5-x-x-4-4-4-4-x-x-5-5-5-5-x-x-2---5---2---|
|-6-6-6-6-6-6-5-5-5-5-5-5-6-6-6-6-6-6-0---3---0---|
|-------------------------------------------------|

Intro riff
2x Riff 1
4x Riff 2 

Chorus:
|-------------------------------------------------------------------------|
|-------------------------------------------------------------------------|
|-------------------------------------------------------------------------|
|-7-----------7-----------5-----------5-----------4-----------4-----------|
|-9-----------9-----------7-----------7-----------6-----------6-----------|
|-----0-0-0-0-----0-0-0-0-----0-0-0-0-----0-0-0-0-----0-0-0-0-----0-0-0-0-|

-------------------------|
-------------------------|
-------------------------|
-5-----------5-----------|
-7-----------7-----------|
-----0-0-0-0-----0-0-0-0-|

|-------------------------------------------------------------------------|
|-------------------------------------------------------------------------|
|-------------------------------------------------------------------------|
|-7-----------7-----------5-----------5-----------8-----------8-----------|
|-9-----------9-----------7-----------7-----------6-----------8-----------|
|-----0-0-0-0-----0-0-0-0-----0-0-0-0-----0-0-0-0-6---0-0-0-0-6---0-0-0-0-|

            [NOT last time!!]
-------------|-------------|
-------------|-------------|
-------------|-------------|
-9~~---------|-9~~---------|
-7~~---------|-7~~---------|
-----0-0-0-0-|-----0-0-0-0-|

3x Chorus
Intro riff
4x Riff 2 
3x Chorus
4x Riff 2 

Riff 3:
|-----------------------------------------------------------------|
|-----------------------------------------------------------------|
|-----------------------------------------9-------7-------7-------|
|-9-----------9-7-7h9---------7-9---------9-------7-------5---7---|
|-7-----------7-5-5h7---------5-7-9---------------------------5---|
|-----0-0-0-0---------0-0-0-0-----7---0-0-----0-0-----0-0---------|

|-----------------------------------------------------------------|
|-----------------------------------------------------------------|
|-----------------------------------------------------------------|
|-9-----------9-7-7h9---------7-9---------4-------5-------4---9-7-|
|-7-----------7-5-5h7---------5-7-9-------5-------7-------5---7-5-|
|-----0-0-0-0---------0-0-0-0-----7---0-0-----0-0-----0-0---------|

2x Riff 3

Break:                       2x
|---------------------------------|
|---------------------------------|
|---------------------------------|
|---------------------------------|
|-2-2-2-2-2-2-2-2-2-2-2-2-2-2-2-2-|
|-0-0-0-0-0-0-0-0-0-0-0-0-0-0-0-0-|
  . . . . . . . . . . . . . . . .

Riff 4:
|-----------------------------------------------------------------------------|
|-----------------------------------------------------------------------------|
|-------------------------------------------------------4h5p4-----------------|
|-2-------------4h5p4---------------5h7p5---------------------9-------4---7---|
|-2-2-2-2-5h7p5-------2-2-2-2-5h7p5-------2-2-2-2-5h7p5-------7---5---2---5---|
|-0-0-0-0-------------0-0-0-0-------------0-0-0-0-----------------3-----------|
    . . .             . . . .             . . . .

|-----------------------------------------------------------------------------|
|-----------------------------------------------------------------------------|
|-------------------------------------------------------4h5p4-----------------|
|-2-------------4h5p4---------------5h7p5---------------------7-------4---7---|
|-2-2-2-2-5h7p5-------2-2-2-2-5h7p5-------2-2-2-2-5h7p5-------5---5---2---5---|
|-0-0-0-0-------------0-0-0-0-------------0-0-0-0-----------------3-----------|
    . . .             . . . .             . . . .

2x Riff 4

Riff 5:
|-----------------------------------------------------------------|
|-2-----------------------------------------------9-------4---7---|
|-2-2-2-2-2-2-2-2-2-2-2-2-2-2-2-2-2-2-2-2-2-2-2-2-7---5---2---5---|
|-0-0-0-0-0-0-0-0-0-0-0-0-0-0-0-0-0-0-0-0-0-0-0-0-----3-----------|
    . . . . . . . . . . . . . . . . . . . . . . .

|-----------------------------------------------------------------|
|-2-----------------------------------------------7-------4---7---|
|-2-2-2-2-2-2-2-2-2-2-2-2-2-2-2-2-2-2-2-2-2-2-2-2-5---5---2---5---|
|-0-0-0-0-0-0-0-0-0-0-0-0-0-0-0-0-0-0-0-0-0-0-0-0-----3-----------|
    . . . . . . . . . . . . . . . . . . . . . . .

4x Riff 4 (Bass only! Gtr Solo!)
4x Riff 3 (fadeout)

That's it!
Too bad it's a fade-out at the end of the album.. always leaves you hangin for more Hof.
Have fun
Добавлено: 01.06.2012
Другие материалы по этой песне:
  • Аккорды и текст

Страница создана 01.06.2012
http://primanota.ru/high-on-fire/return-to-nod-chords.htm
Привет, Гость.
Предлагаем пройти революционный курс по гитаре.
Подарок от PrimaNota.Ru, забирай!