PrimaNota.ru - самый крупный в мире бесплатный архив песенных текстов, аккордов, табулатур и нот


High On Fire - How Dark We Pray - таба, видео

Регистрация Запомнить меня
Войти через:  Facebook Google Twitter Vk Yandex Mail.ru

High On Fire - How Dark We Pray - таба, видео

Печатать
Просмотров: 123
How Dark We Pray
High on Fire
Tabbed by LazyTab

Tuning: 2 Steps Down

Notes: These are all of the riffs, listen to the song to piece them together. Pike plays 
a custom, 9-string guitar to produce a chorus-like effect for the three high strings. 
If you have any corrections or additions, feel free to contact me at jalonkas@gmail.com.  Cheers!

- LazyTab


|---------------------------------------------------------------------|
|---------------------------------------------------------------------|
|---------------------------------------------------------------------|
|-14-----14-14-14-14-14-12-----12~----14-----14------7-----10---9\----|
|-12-----12-12-12-12-12-10-----10~----12-----12~-----5-----8----7\----|
|-12-----12-12-12-12-12-10-----10~----12-----12~-----5-----8----7\----|


|-------------------------------------------------------------------------|
|-------------------------------------------------------------------------|
|-------------------------------------------------------------------------|
|-------------------------------------------------------------------------|
|-/12-----12---12/--17-15~----15~----12-----12---12/--17-15-15-15-5-3-3-3-|
|-/10-----10---10/--13--------13~----10-----10---10/--13----13-13-1---1-1-|


|---------------------------------------------------------------------------------|
|---------------------------------------------------------------------------------|
|---------------------------------------------------------------------------------|
|---------------------------------------------------------------------------------|
|-/9----/9---9/--19-17~----17~-----\9-----9---9-9-10-9-7-9-12-10-9-10-14-12-10-12-|
|-/7----/7---7/--15--------15~-----\7-----7---7-7-7--7-7-7-8--8--8-8--10-10-10-10-|


|--------------------------------------------------------------------------------------|
|-1--0--------------------5--3---------------------------------------------------------|
|-------2-----2-----------------5--4--5----5h7p5--4-----4-----------4h5p4----4---------|
|----------2-----2-----------------------------------7-----7--5-h7--------7-----5--7~--|
|--------------------------------------------------------------------------------------|
|-------------------3~-----------------------------------------------------------------|


|-------------------15b17---15-12----------12-------------------------------------------------|
|-15b16---15-13-------------------15b17b15-13-12-13-12h13p12----12----------------------------|
|---------------12-------------------------------------------14----12-14-14b16b14b16b14b16b14-|
|---------------------------------------------------------------------------------------------|
|---------------------------------------------------------------------------------------------|
|---------------------------------------------------------------------------------------------|


|-7b8----7--5--------7b8b7---------8-----7-----7b8----7--5---------7b8b7-----------|
|--------------8--5-------------5-----5-----5----------------8--5---------8--------|
|----------------------------------------------------------------------------7~----|
|----------------------------------------------------------------------------------|
|----------------------------------------------------------------------------------|
|----------------------------------------------------------------------------------|


|----------0-----------0-----------0--1--0h1p0-----0-----------0-----------0-|
|-0--1--3-----0--1--3-----0--1--3---------------3-----0--1--3-----0--1--3----|
|----------------------------------------------------------------------------|
|----------------------------------------------------------------------------|
|----------------------------------------------------------------------------|
|----------------------------------------------------------------------------|
*Listen for muted notes.

|-8---7---5---7---10---8---7---8---12---10---8---10---17--------17--------|
|-----------------------------------------------------19b22-----19b22-----|
|-------------------------------------------------------------------------|
|-------------------------------------------------------------------------|
|-------------------------------------------------------------------------|
|-------------------------------------------------------------------------|


|----------------------------------------------------------------------------|
|-1--0----------------5--3---------------------------------------------------|
|-------2-------------------5-p4--5--4h5p4-----4--------4h5p4-----4----------|
|----------2--------------------------------7-----5--7---------7-----5---7~--|
|----------------------------------------------------------------------------|
|--------------3~------------------------------------------------------------|


|---------------------------------------------------------------------|
|---------------------------------------------------------------------|
|---------------------------------------------------------------------|
|-9-------------------------------------------------------------------|
|-7-------------------------------------------------------------------|
|-0-------------------------------------------------------------------|


|-----------------------------------------------------------------------------|
|-----------------------------------------------------------------------------|
|-/9---\4---/7---/9---/10---\7---/13~-----------------------------------------|
|--x----x----x----x----x-----x----x-------------------------------------------|
|-/7---\2---/5---/7---/8----\5---/11~-----------------------------------------|
|--------------------------------------------00000000000000000000000000000000-|
                                             ................................

|-----------------------------------------------------------------------------|
|-----------------------------------------------------------------------------|
|-/9---\4---/7---/9---/10---\7---/13---\10------------------------------------|
|--x----x----x----x----x-----x----x-----x-------------------------------------|
|-/7---\2---/5---/7---/8----\5---/11---\8-------------------------------------|
|--------------------------------------------00000000000000000000000000000000-|
                                             ................................

|-------------------------------------------------------------------------|
|-------------------------------------------------------------------------|
|-------------------------------------------------------------------------|
|-------------------------------------------------------------------------|
|-14---9---12---14---15---12---18~----------------------------------------|
|-12---7---10---12---13---10---16~-------00000000000000000000000000000000-|
                                         ................................

|-------------------------------------------------------------------------|
|-------------------------------------------------------------------------|
|-------------------------------------------------------------------------|
|-------------------------------------------------------------------------|
|-14---9---12---14---15---12---18---15------------------------------------|
|-12---7---10---12---13---10---16---13---00000000000000000000000000000000-|
                                         ................................

|------------------------------------------------------------------------------------|
|------------------------------------------------------------------------------------|
|------------------------------------------------------------------------------------|
|-/9---\4---/7---/9---/10---\7---/13~------/9---\4---/7---/9---/10---\7---/13---\10--|
|-/7---\2---/5---/7---/8----\5---/11~------/7---\2---/5---/7---/8----\5---/11---\8---|
|-/7---\2---/5---/7---/8----\5---/11~------/7---\2---/5---/7---/8----\5---/11---\8---|


|---------7-------------------------------7------------------------|
|-----------7~------------------------------7~---------------------|
|------------------------------------------------------------------|
|-9---------------8---------------9----------------8/12-11-8/11-8--|
|-7---------------6---------------7----------------6/10-9--6/9--6--|
|-7---------------6---------------7--------------------------------|


|-------------------------------------------------------------------------|
|-0------------------0------------------0---------------------------------|
|-0------------------0------------------0---------------------------------|
|-9------------------8------------------9------------------8/12-11-8/11-8-|
|-7------------------6------------------7------------------6/10-9--6/9--6-|
|------0-0-000-000--------0-0-000-000--------0-0-000-000------------------|
       . . ... ...        . . ... ...        . . ... ...
Добавлено: 03.07.2012
Другие материалы по этой песне:
  • Аккорды и текст

Страница создана 03.07.2012
http://primanota.ru/high-on-fire/how-dark-we-pray-chords.htm
Привет, Гость.
Предлагаем пройти революционный курс по гитаре.
Подарок от PrimaNota.Ru, забирай!