PrimaNota.ru - самый крупный в мире бесплатный архив песенных текстов, аккордов, табулатур и нот


High On Fire - Generation Lost - таба, видео

Регистрация Запомнить меня
Войти через:  Facebook Google Twitter Vk Yandex Mail.ru

High On Fire - Generation Lost - таба, видео

Печатать
Просмотров: 99
standard drop D tuning


Willis Riff 1
E--------------------------------------------------------|
B--------------------------------------------------------|
G---------5---------4---------5---------4---------4h5----|
D---------5---------5---------5---------5---------5------|
A-0-0-0-0---0-0-0-0---0-0-0-0---0-0-0-0---0-0-0-0--------|
D--------------------------------------------------------|

E----------------------------------------------------|
B----------------------------------------------------|
G---------5---------4------------------5---------4---|
D---------5---------5------------------5---------5---|
A-3-3-3-3---3-3-3-3---3-3-3-3------------------------|
D------------------------------3-3-3-3---3-3-3-3-----|

DAve Riff 1

E--------------------------------------------------------|
B--------------------------------------------------------|
G---------5---------4---------5---------4---------4h5----|
D---------5---------5---------5---------5---------5------|
A-0-0-0-0---0-0-0-0---0-0-0-0---0-0-0-0---0-0-0-0--------|
D--------------------------------------------------------|

E----------------------------------------------------|
B----------------------------------------------------|
G---------5---------4------------------5---------4---|
D---------5---------5------------------5---------5---|
A-3-3-3-3---3-3-3-3---3-3-3-3------------------------|
D------------------------------3-3-3-3---3-3-3-3-----|

2ed time around
E--------------------------------------------------------|
B--------------------------------------------------------|
G---------5---------4---------5---------4---------4h5----|
D---------5---------5---------5---------5---------5------|
A-0-0-0-0---0-0-0-0---0-0-0-0---0-0-0-0---0-0-0-0--------|
D--------------------------------------------------------|


E----------------------------------------------------|
B--------------------------------------1-----3-1-0---|
G---------5---------4------------------0-----0-0-0---|
D---------5---------5----------3-3-3-3---3-3-3-3-3---|
A-3-3-3-3---3-3-3-3---3-3-3-3------------------------|
D----------------------------------------------------|


verse Dave
E-------------------------------------------------------------|
B-------------------------------------------------------------|
G-5-5-----4-4-----5-5-----4-4-----7-7-----5-5-----4-4-----2-2-|
D-5-5-----5-5-----5-5-----5-5-----5-5-----5-5-----5-5-----5-5-|
A-----3-3-----3-3-----3-3-----3-3-----3-3-----3-3-----3-3-----|
D-------------------------------------------------------------|
   All 3s on the a string are Palm muted


Willy verse
E--------------------------------------------------------|
B--------------------------------------------------------|
G-4h5------5-5p4-----------------------------------------|
D-5--------5-5-------------reapeat-----------------------|
A-3---3-3--3-3---3-3-------------------------------------|
D--------------------------------------------------------|

Chorus DAve & Willy

E---------------------------------------------------|
B---------------------------------------------------|
G-2-2-2-------------------7------------5s7-7--------|
D-2-2-2-3-3-3-5-5-5-0-0-0-7------0-0-0-5s7-7--------|
A-0-0-0-3-3-3-5-5-5-0-0-0-5-ring 0-0-0-3s5-5--------|
D-------3-3-3-5-5-5-0-0-0--------0-0-0--------------|
                   (Pm---)      (Pm-----------------|

E------------------------------------------------------|
B------------------------------------------------------|
G-2-2-2------------------------------------------------|
D-2-2-2-3-3-3-5-5-5-0-0-0--0-----0-0-0------10-----10--|
A-0-0-0-3-3-3-5-5-5-0-0-0--0-----0-0-0--7h8----7h8-----|
D-------3-3-3-5-5-5-0-0-0--0-----0-0-0-----------------|
                   (Pm---)      (Pm--------------------|


E--------------------------------------------------------------------------|
B--------------------------------------------------------------------------|
G-----------------------------------------------------------------------7--|
D-----------10-----10-----------10-8-7-----------10-----10-----------10----|
A-------7h8----7h8----------7h8--------------7h8----7h8----------7h8-------|
D-0-0-0---------------0-0-0------------0-0-0---------------0-0-0-----------|
 (PM---)             (PM---)          (Pm---)             (Pm--------------|
Добавлено: 08.05.2012
Другие материалы по этой песне:
  • Аккорды и текст

Страница создана 08.05.2012
http://primanota.ru/high-on-fire/generation-lost-chords.htm
Привет, Гость.
Предлагаем пройти революционный курс по гитаре.
Подарок от PrimaNota.Ru, забирай!