PrimaNota.ru - самый крупный в мире бесплатный архив песенных текстов, аккордов, табулатур и нот


High On Fire - Frost Hammer - таба, видео

Регистрация Запомнить меня
Войти через:  Facebook Google Twitter Vk Yandex Mail.ru

High On Fire - Frost Hammer - таба, видео

Печатать
Просмотров: 170
Frost Hammer
High on Fire
Tabbed by LazyTab

Tuning: 2 Steps Down

Notes: These are all of the riffs, minus the solo and the rhythm for the solo, which is
by the bass guitarist. Pike plays a custom, 9-string guitar to produce a chorus-like
for the three high strings. If you have any corrections or additions, feel free to 
me at jalonkas@gmail.com.  Cheers!

- LazyTab


|------------------------------------------------------|
|------------------------------------------------------|
|------------------------------------------------------|
|------------------------------------------------------|
|-12--14\--x-x-10\9-8~---9----12--14\--x-x-10\9-5~---4-|
|-10--12\--x-x--8\7-6~---7----10--12\--x-x--8\7-3~---2-|
           . .                         . .

|-----------------------------------------------------------|
|-----------------------------------------------------------|
|-----------------------------------------------------------|
|-----------------------------------------------------------|
|-12--14\--x-x-10\9-8~---9----12--14\--x-x-10\9-5~---4----4-|
|-10--12\--x-x--8\7-6~---7----10--12\--x-x--8\7-3~---2----2-|
           . .                         . .

|-------------------------------------------------------------------------------------|
|-------------------------------------------------------------------------------------|
|-------------------------------------------------------------------------------------|
|-------------------------------------------------------------------------------------|
|-8---------------8-----8-----8---8---------------12----------------11-------------7--|
|-0h6-0-0-0-0-0-0-0h6-0-0h6-0-0h6-0h6-0-0-0-0-0-0-10h11p10h11p10-----9h10p9h10p9---5--|
      . . . . . .     .     .         . . . . . .

|--------------------------------------------------------------------------------------|
|--------------------------------------------------------------------------------------|
|--------------------------------------------------------------------------------------|
|--------------------------------------------------------------------------------------|
|-8---------------8-----8-----8---8---------------16---------------15---------------9--|
|-0h6-0-0-0-0-0-0-0h6-0-0h6-0-0h6-0h6-0-0-0-0-0-0-14h15p14h15p14---13h14p13h14p13---7--|
      . . . . . .     .     .         . . . . . .

|---------------------------------------------------------------------------------|
|---------------------------------------------------------------------------------|
|---------------------------------------------------------------------------------|
|---------------------------------------------------------------------------------|
|-8---------------8-----8-----8---8---------------12~---11~---7~---16----15~---9--|
|-0h6-0-0-0-0-0-0-0h6-0-0h6-0-0h6-0h6-0-0-0-0-0-0-10~----9~---5~---14----13~---7--|
      . . . . . .     .     .         . . . . . .

|----------------------------------------------------|
|----------------------------------------------------|
|----------------------------------------------------|
|----------------------------------------------------|
|-14~------13-----9-----2/--12~------9-----5-----5---|
|-12~------11-----7-----0/--10~------7-----3-----2---|


|------------------------------------------------------|
|------------------------------------------------------|
|------------------------------------------------------|
|------------------------------------12----12----------|
|-14~------13-----9-----2/--12~------10-----9-----12---|
|-12~------11-----7-----0/--10~-------------------10---|


|---------------------------------------------------------------------|
|---------------------------------------------------------------------|
|---------------------------------------------------------------------|
|---------------------------------------------------------------------|
|-14---15----14----------8---/12---8---7---8----7--------3---/6---3---|
|-12------17----15-17-14-6---/10---6---0-----10---8-10-7-1---/4---1---|
        .  .  .  .  .  .                   .  . . .  . .

|-3---3-------------------------------------------|
|---3---3-----------------------------------------|
|-------------------------------------------------|
|-------------------------------------------------|
|-5---5-5-5-5-3---5-5-5-5-3---5-5-5-5-3---5-5-5-5-|
|-3---3-3-3-3-3---3-3-3-3-3---3-3-3-3-3---3-3-3-3-|


|-2---2-------------------------------------------|
|---2---2-----------------2-----------2-----------|
|-------------------------------------------------|
|-------------------------------------------------|
|-5---5-5-5-5-4---4-4-4-4-----4-4-4-4-----4-4-4-4-|
|-2---2-2-2-2-2---2-2-2-2-----2-2-2-2-----2-2-2-2-|


|-3---3-------------------------------------------|
|---3---3-----------------------------------------|
|-------------------------------------------------|
|-------------------------------------3---1---0---|
|-5---5-5-5-5-5---5-5-5-5-------3-5-6---5---3---2-|
|-3---3-3-3-3-3---3-3-3-3-3-5-6-------------------|


|-2---2-------------------------------------------|
|---2---2-----------------------------------------|
|-------------------------------------------------|
|-------------------------------------------------|
|-4---4-4-4-4-5---5-5-5-5-7---7-7-7-7-4---4-4-4-4-|
|-2---2-2-2-2-2---2-2-2-2-2---2-2-2-2-2---2-2-2-2-|


|-------------------------------------------------|
|-------------------------------------------------|
|-------------------------------------------------|
|-------------------------------------------------|
|-7---7-7-7-7-7---7-7-7-7-7---7-7-7---7-7-7-7---7-|
|-5---5-5-5-5-5---5-5-5-5-4---4-4-4/5-7-7-7-5\4-4-|


|-------------------------------------------------|
|-------------------------------------------------|
|-------------------------------------------------|
|-------------------------------------------------|
|-4---4-4-4-4-7---7-7-7-7-2---2-2-2-2-0---0-0-0-0-|
|-2---2-2-2-2-2---2-2-2-2-2---2-2-2-2-2---2-2-2-2-|


|-------------------------------------------------|
|-------------------------------------------------|
|-------------------------------------------------|
|-------------------------------------------------|
|-5---5-5-5-5-5---5-5-5-5-5---5-5-5-5-5---5-5-5-5-|
|-3---3-3-3-3-3---3-3-3-3-3---3-3-3-3-3---3-3-3-3-|


|-------------------------------------------------|
|-------------------------------------------------|
|-------------------------------------------------|
|-------------4-----------5----------/8-----------|
|-2-----------x-----------x-----------x-----------|
|-0-----------2-----------3----------/6-----------|


|------------------------------------------------------------------|
|------------------------------------------------------------------|
|------------------------------------------------------------------|
|------------------------------------------------------------------|
|-14\--Frost-Hammer!--8---12---8---14\--Frost Hammer!--3---6---3---|
|-12\-----------------6---10---6---12\-----------------1---4---1---|


|-Solo-?--------------------------------------------------------------|
|---------------------------------------------------------------------|
|---------------------------------------------------------------------|
|---------------------------------------------------------------------|
|---------------------------------------------------------------------|
|---------------------------------------------------------------------|
Добавлено: 12.05.2012
Другие материалы по этой песне:
  • Аккорды и текст

Страница создана 12.05.2012
http://primanota.ru/high-on-fire/frost-hammer-chords.htm
Привет, Гость.
Предлагаем пройти революционный курс по гитаре.
Подарок от PrimaNota.Ru, забирай!