PrimaNota.ru - самый крупный в мире бесплатный архив песенных текстов, аккордов, табулатур и нот


High On Fire - Fireface - текст песни, таба, видео

Регистрация Запомнить меня
Войти через:  Facebook Google Twitter Vk Yandex Mail.ru

High On Fire - Fireface - текст песни, таба, видео

Печатать
Просмотров: 197
-------------------------------------------------------------------------------
                             FIREFACE - High On Fire
-------------------------------------------------------------------------------
Tabbed by: Weedian
Email: quentin.ries@gmail.com

Tuning: CFA#D#GC



Intro riff

      Q    Q    Q     Q       Q     Q    Q    Q       Q    Q    Q    E   E
C ||-----------------------|-----------------------|------------------------|
G ||-----------------------|-----------------------|------------------------|
D#||-----------------------|-----------------------|------------------------|
A#||-----------------------|-----------------------|------------------------|
F ||--7---------7----10----|-------10----9---------|--9----5---------5h--7--|
C ||-------0---------------|--0---------------0----|------------0-----------|


  Q    Q    Q     Q         Q     Q     Q    Q        Q    Q    Q    E   E
------------------------|-------------------------|-------------------------|
------------------------|-------------------------|-------------------------|
------------------------|-------------------------|-------------------------|
------------------------|-------------------------|-------------------------|
--7---------7----13~----|---L----13----12----L----|--12----8----L----8s--7--|
-------0----------------|-------------------------|-------------------------|


Verse (Pike actually plays it in 12th fret on E string with slides. Just Trying to go as 
simple as possible)


      E  E  E  E  E  E  E  E     E  E  E  E  E  E  E  E
C ||--------------------------------------------------|
G ||--------------------------------------------------|
D#||--------------------------------------------------|
A#||--7--9--9--7--9--9--7--9--9--7--9--9--7--------5--|
F ||--5--7--7--5--7--7--5--7--7--5--7--7--5--7--7-----|
C ||--------------------------------------------------|


  E  E  E  E   E   E   E  E   E  E  E  E  E  E  E  E
------------------------------------------------------|
------------------------------------------------------|
------------------------------------------------------|
--9--7--9--9---------------------------------7--7--7--|
--7--5--7--7--10--12--10--9--10--9--7--9--7--5--5--5--|
------------------------------------------------------|


  E  E  E  E  E  E  E  E
--------------------------||
--------------------------||
--------------------------||
--7--7-----7--7--7--5--7--||
--5--5-----5--5--5--------||
--------0-----------------||


Bridge


      Q.      Q.      Q.     Q.        Q.      Q.      Q.      Q.
C ||--------------------------------|---------------------------------|
G ||--------------------------------|---------------------------------|
D#||--------------------------------|---------------------------------|
A#||--9------12------11------7------|--9------15------14------10------|
F ||--7------10-------9------5------|--7------13------12-------8------|
C ||--------------------------------|---------------------------------|

  Q.      Q.      Q.     Q.        Q.      Q.      Q.      Q.
--------------------------------|---------------------------------||
--------------------------------|---------------------------------||
--------------------------------|---------------------------------||
--9------12------11------7------|--9------15------14------10------||
--7------10-------9------5------|--7------13------12-------8------||
--------------------------------|---------------------------------||


"Chorus"


      E  E  E  E  E  E  Q    Q    Q       E  E  E  E  E  E  Q    Q    Q
C ||-----------------------------------|-----------------------------------|
G ||-----------------------------------|-----------------------------------|
D#||-----------------------------------|-----------------------------------|
A#||--9--9--9--9--9--9--9----9----9----|--9--9--9--9--9--9--9----9----9----|
F ||--7--7--7--7--7--7--7----7----7----|--7--7--7--7--7--7--7----7----7----|
C ||-----------------------------------|-----------------------------------|


   E   E   E   E   E   E   E   E   E   E   E   E
--------------------------------------------------|
--------------------------------------------------|
--------------------------------------------------|
--------------------------------------------------|
--19--19--19--19--19--19--17--17--17--17--17--17--|
--15--15--15--15--15--15--15--15--15--15--15--15--|


   E   E   E   E   E   E   E   E   E   E   E   E
--------------------------------------------------|
--------------------------------------------------|
--------------------------------------------------|
--------------------------------------------------|
--17--17--17--17--17--17--16--16--16--16--16--16--|
--14--14--14--14--14--14--14--14--14--14--14--14--|


  E  E  E  E  E  E  Q    Q    Q       E  E  E  E  E  E  Q    Q    Q
-----------------------------------|-----------------------------------|
-----------------------------------|-----------------------------------|
-----------------------------------|-----------------------------------|
--9--9--9--9--9--9--9----9----9----|--9--9--9--9--9--9--9----9----9----|
--7--7--7--7--7--7--7----7----7----|--7--7--7--7--7--7--7----7----7----|
-----------------------------------|-----------------------------------|


  E  E  E  E  E  E  E  E  E  E  E  E     E  E  E  E  E  E  E  E  E  E  E  E
--------------------------------------|--------------------------------------|
--------------------------------------|--------------------------------------|
--------------------------------------|--------------------------------------|
--5--5--5--5--5--5--4--4--4--4--4--4--|--0--0--0--0--0--0--7--7--7--7--7--7--|
--7--7--7--7--7--7--5--5--5--5--5--5--|--2--2--2--2--2--2--5--5--5--5--5--5--|
--------------------------------------|--------------------------------------|


  E  E  E  E  E  E  Q    Q    Q       E  E  E  E  E  E  Q    Q    Q
-----------------------------------|-----------------------------------|
-----------------------------------|-----------------------------------|
-----------------------------------|-----------------------------------|
--9--9--9--9--9--9--9----9----9----|--9--9--9--9--9--9--9----9----9----|
--7--7--7--7--7--7--7----7----7----|--7--7--7--7--7--7--7----7----7----|
-----------------------------------|-----------------------------------|


  E  E  E  E  E  E  E  E  E  E  E  E
--------------------------------------|
--------------------------------------|
--------------------------------------|
--------------------------------------|
--9--9--9--9--9--9--5--5--5--5--5--5--|
--7--7--7--7--7--7--3--3--3--3--3--3--|


  E  E  E  E  E  E   E   E   E   E   E   E
--------------------------------------------|
--------------------------------------------|
--------------------------------------------|
--------------------------------------------|
--5--5--5--5--5--5--12--12--12--12--12--12--|
--2--2--2--2--2--2--10--10--10--10--10--10--|


  E  E  E  E  E  E  Q    Q    Q       E  E  E  E  E  E  Q    Q    Q
-----------------------------------|-----------------------------------|
-----------------------------------|-----------------------------------|
-----------------------------------|-----------------------------------|
--9--9--9--9--9--9--9----9----9----|--9--9--9--9--9--9--9----9----9----|
--7--7--7--7--7--7--7----7----7----|--7--7--7--7--7--7--7----7----7----|
-----------------------------------|-----------------------------------|


  E  E  E  E  E  E  E  E  E  E  E  E
--------------------------------------|
--------------------------------------|
--------------------------------------|
--------------------------------------|
--9--9--9--9--9--9--5--5--5--5--5--5--|
--7--7--7--7--7--7--3--3--3--3--3--3--|


  E  E  E  E  E  E   E   E   E   E   E   E     W
--------------------------------------------|-------------------|
--------------------------------------------|-------------------|
--------------------------------------------|-------------------|
--------------------------------------------|-------------------|
--5--5--5--5--5--5--12--12--12--12--12--12--|--7----------------|
--2--2--2--2--2--2--10--10--10--10--10--10--|--0----------------|



Tablature Legend
----------------
L - tied note



Verse, bridge, chorus, verse...And so it goes.
I Know, I didn't tab the solos. But if you know this song (and you do, since you're 
reading that), you'll understand why.
Oh, and I almost forgot. I'm a bass player ;)
Thanks for reading, Weedian.

(Please Rate!)
Добавлено: 11.06.2012
Другие материалы по этой песне:
  • Аккорды и текст

Страница создана 23.04.2012
http://primanota.ru/high-on-fire/fireface-chords.htm
Привет, Гость.
Предлагаем пройти революционный курс по гитаре.
Подарок от PrimaNota.Ru, забирай!