PrimaNota.ru - самый крупный в мире бесплатный архив песенных текстов, аккордов, табулатур и нот


High On Fire - Ethereal - таба, видео

Регистрация Запомнить меня
Войти через:  Facebook Google Twitter Vk Yandex Mail.ru

High On Fire - Ethereal - таба, видео

Печатать
Просмотров: 108
Уроки эстрадного вокала в Санкт-Петербурге
Ethereal
by High on Fire
from Death is this Communion

Tabbed by Willothius.
[One of the first things I tabbed, since so few HoF tabs are available.
Some of the fills are quite difficult to hear/play, but watch the timing of the slides 
and you'll find that it comes veeeery close to what M.Pike does... ]


Tuning: C-F-Bb-Eb-G-C

Riff 1:
|----------------------------------------|
|----------------------------------------|
|--7-------8-----5-8-7-------5-----5-8---|
|--7-------8-----3-6-7-------5-----3-6---|
|--5-------6-----3-6-5-------3-----3-6---|
|--5-------6---------5-------3-----------|

2x Riff 1 Gtr I Only
2x Riff 1 Gtr I + Drums

Riff 2:
|------------------------------------|----------------------------------------|
|--------7-----10-8-7---8-7----------|----------------------------------------|
|----7-8---8-7--------8-----8-7------|-8-7------7-----------------------------|
|-10----------------------------10-8-|-----10-8---10-8-7-10-8-7----8-7--------|
|------------------------------------|--------------------------10-----10-(9)-|
|------------------------------------|----------------------------------------|

2x Riff 2 (Bass: Continue Riff 1)
1x Riff 1

Riff 3:
|---------------------------------|---------------------------------|
|---------------------------------|---------------------------------|
|---------------------------------|---------------------------------|
|-8h7-7-7-7-7-8h7-7-7-7-7-7---7-7-|-8h7-7-7-7-7-8h7-7-7-7-7-7---7-7-|
|-6h5-5-5-5-5-6h5-5-5-5-5-5---5-5-|-6h5-5-5-5-5-6h5-5-5-5-5-5---5-5-|
|---------------------------------|---------------------------------|
      . . . .     . . . .     . .       . . . .     . . . .     . .

|---------------------------------|---------------------------------|
|---------------------------------|---------------------------------|
|---------------------------------|-------------------------5---8---|
|---------------------------------|-------------------------3---8---|
|-6---6-6-6-6-6---6-6-6-6-6---6-6-|-5---5-5-5-5-3---3-3-3-3-3---6---|
|-8---8-8-8-8-8---8-8-8-8-8---8-8-|-6---6-6-6-6-5---5-5-5-5---------|
      . . . .     . . . .     . .       . . . .     . . . .

1x Riff 3 Gtr I Only
4x Riff 3

Chorus:
|-------------------------------------------------|
|-------------------------------------------------|
|-------------------------------------------------|
|-------------------------------------------------|
|-13-13-13-13-13-13-13-13-12-12-12-16-16-16-16-16-|
|-11-11-11-11-11-11-11-11-11-11-11-11-11-11-11-11-|


|----------------------------------------------------------------------|
|----------------------------------------------------------------------|
|----------------------------------------------------------------------|
|----------------------13-13-13\---------------------------------------|
|-13-13-13-12-12-12-13-13-13-13\10-10-10\7-7-7/10-10-10-7-7-7/10-10-10-|
|-11-11-11-11-11-11-11-11-11-11\8--8--8 \5-5-5/8--8--8--5-5-5/8--8--8--|

|-------------------------------------------------|
|-------------------------------------------------|
|-------------------------------------------------|
|-------------------------------------------------|
|-13-13-13-13-13-13-13-13-12-12-12-16-16-16-16-16-|
|-11-11-11-11-11-11-11-11-11-11-11-11-11-11-11-11-|


|----------------------------------------------------------------------|
|----------------------------------------------------------------------|
|----------------------------------------------------------------------|
|----------------------------------------------------------------------|
|-13-13-13-12-12-12-13-16-16-16\13-13-13\10-10\7-7-7/10-10-10-10\7-7-7-|
|-11-11-11-11-11-11-11-14-14-14\11-11-11\8--8 \5-5-5/8--8--8--8 \5-5-5-|

2x Chorus
4x Riff 3
2x Chorus
1x Riff 1
2x Riff 2

Riff 4:

|-----------------------------------------------------------------|
|-----------------------------------------------------------------|
|-5--5--5--5--5-5-5--5--5--5--5-8-6--6--------6-6-----------------|
|---------------------------------------6--6------1--1--3--3--1-1-|

4x Riff 4 (Bass only! Gtr Solo!)
4x Chorus (fade out)

That's it!
What a kickass song, have fun!
Добавлено: 11.04.2012
Другие материалы по этой песне:
  • Аккорды и текст

Страница создана 11.04.2012
http://primanota.ru/high-on-fire/ethereal-chords.htm
Привет, Гость.
Предлагаем пройти революционный курс по гитаре.
Подарок от PrimaNota.Ru, забирай!