PrimaNota.ru - самый крупный в мире бесплатный архив песенных текстов, аккордов, табулатур и нот


High On Fire - Blessed Black Wings - таба, видео

Регистрация Запомнить меня
Войти через:  Facebook Google Twitter Vk Yandex Mail.ru

High On Fire - Blessed Black Wings - таба, видео

Печатать
Просмотров: 197
i figured out the intro last night.. but unfortunately it was early and i was too tired
to keep going, maybe i'll try the rest some other time. this is the coolest riff in the
song anyway :)

e|------------------------------------------------------------|
b|------------------------------------------------------------|
g|-12-11-8~-\9-----------------------12--------11---------12--|
d|-------------10-10-14-13-9---11p10-----11p10------11p10-----|
a|------------------------------------------------------------|
e|------------------------------------------------------------|


e|---------------------------------------------------------------|
b|---------------------------------------------------------------|
g|---------------------------------------------------------------|
d|--------------------12-11-8~-\9-10-10--14-13-9-----------------|
a|---11-11-9-9-9-9--------------------------------11-9-10-8-9-10-|
e|---9--9--7-7-7-7--------------------------------9--7-8--6-7-8--|
Добавлено: 18.03.2012
Другие материалы по этой песне:
  • Аккорды и текст

Страница создана 17.03.2012
http://primanota.ru/high-on-fire/blessed-black-wings-chords.htm
Привет, Гость.
Предлагаем пройти революционный курс по гитаре.
Подарок от PrimaNota.Ru, забирай!