PrimaNota.ru - самый крупный в мире бесплатный архив песенных текстов, аккордов, табулатур и нот


High On Fire - Bastard Samurai - таба, видео

Регистрация Запомнить меня
Войти через:  Facebook Google Twitter Vk Yandex Mail.ru

High On Fire - Bastard Samurai - таба, видео

Печатать
Просмотров: 134
Bastard Samurai
High on Fire
Tabbed by LazyTab

Tuning: 2 Steps Down and Dropped B flat

Notes: These are all of the riffs, minus the solo and the rhythm for the solo, which is 
handled by the bass guitarist. Pike plays a custom, 9-

string guitar to produce a chorus-like effect for the three high strings. If you have 
corrections or additions, feel free to contact me at

jalonkas@gmail.com.  Cheers!

- LazyTab


|-----------------------------------------|----------------------------------------------|
|-----------------------------------------|----------------------------------------------|
|-----------------------------------------|----------------------------------------------|
|-----------------------------------------|----------------------------------------------|
|----------------------------------13-----|----------------------------------13----------|
|-10---7---10---7-5-10---12---14---13-----|-10---7---10---7-5-10---12---10---13----------|


|--------------------------------------------------------|
|--------------------------------------------------------|
|--------------7/11\10~----------------------------------|
|-0-----7------x-----------------------------------------|
|-0-----5------5/-9\-8~---12-15-14-11~--6-11-6-11-6-11-6-|
|-0-----0-----------------12-15-14-11~--6-11-6-11-6-11-6-|


|------------------------------------h17\/\/\/\/\/\/\/\/\/\/\/\/\/\/\/\/-|
|------------------------------------------------------------------------|
|-7~---------------------------------------------------------------------|
|-7~---------------------------------------------------------------------|
|-5~---------------------------------------------------------------------|
|-0----------------------------------------------------------------------|
*Start flicking your toggle switch off and on here. Because I cannot consistantly rely 
feedback, I just hammer-on the high string.

|-------------------------------------------------------|
|-------------------------------------------------------|
|-7----/10-----/13----\10----/12----\8----/10-----6~----|
|-------------------------------------------------------|
|-5-----/8-----/11-----\8----/10----\6-----/8-----4~----|
|-------------------------------------------------------|
*Continue to flick your toggle off and on and slide without picking until the last chord.

|-------------------------------------------------------|
|-------------------------------------------------------|
|-7----/10-----/13----\10----/12----\8----/10-----8~----|
|-------------------------------------------------6~----|
|-5-----/8-----/11-----\8----/10----\6-----/8-----------|
|-------------------------------------------------------|


|-------------------------------------------|
|-------------------------------------------|
|-------------------------------------------|
|-------------------------------------------|
|-0---14----15---12-7/10---12---12---13~----|
|-0---14----15---12-7/10---12---12---13~----|


|--------------------------------------|--------------------------------3~----|
|--------------------------------------|-8/10---8---6~--5-6-3---6---3---4~----|
|--------------------------------------|--------------------------------------|
|-8h10---8---7-----5-7---5---0---1~----|--------------------------------------|
|--------------------------------x-----|--------------------------------------|
|--------------------------------1~----|--------------------------------------|


|-solo-?-----------------------------------------------------------------------------|
|------------------------------------------------------------------------------------|
|------------------------------------------------------------------------------------|
|------------------------------------------------------------------------------------|
|------------------------------------------------------------------------------------|
|------------------------------------------------------------------------------------|


|----------------------------------|
|----------------------------------|
|----------------------------------|
|-12-----12-----Bastard Samurai!---|
|-12-----12------------------------|
|--0------0------------------------|


|--------------------------------------|
|--------------------------------------|
|--------------------------------------|
|-12-----12-----12-12-12-12-12-12-12\--|
|-12-----12-----12-12-12-12-12-12-12\--|
|--0------0------0--0--0--0--0--0--0---|
                 .  .  .  .  .  .
Добавлено: 20.06.2012
Другие материалы по этой песне:
  • Аккорды и текст

Страница создана 20.06.2012
http://primanota.ru/high-on-fire/bastard-samurai-chords.htm
Привет, Гость.
Предлагаем пройти революционный курс по гитаре.
Подарок от PrimaNota.Ru, забирай!