PrimaNota.ru - самый крупный в мире бесплатный архив песенных текстов, аккордов, табулатур и нот


High Flight Society - Time Is Running Out - таба, бас-таба, видео

Регистрация Запомнить меня
Войти через:  Facebook Google Twitter Vk Yandex Mail.ru

High Flight Society - Time Is Running Out - таба, бас-таба, видео

Печатать
Просмотров: 140
Tuning: Half-Step Down

| ~   vibrato
| b   bend
| r   return bend
| /   slide up

All guitars tuned Eb Ab Db Gb Bb eb
 {Gtr 1 - distorted electric
 {Gtr 2 - distorted electric

0:00
   {Gtr 1
eb|-----------------------------------------|
Bb|------8--------8-10~-----8--------8-10~--|
Gb|--------7~-----------------7~------------|
Db|----10-------10--------10-------10-------|
Ab|--0--------0---------0--------0----------|
Eb|-----------------------------------------|

0:06
   {Gtr 1
eb|-------------------------------------------------------|
Bb|------8--------8-10~------------------------88-1212-8--|
Gb|--------7~------------9b10r9-------------77------------|
Db|----10-------10---------------9b10r9--10---------------|
Ab|--0--------0-------------------------------------------|
Eb|-------------------------------------------------------|
   {Gtr 2
eb|--------------------------------------|
Bb|--------------------------------------|
Gb|--2-2-2-2--2-2-2-2--5-5-5-5--5-5-5-5--|
Db|--2-2-2-2--2-2-2-2--5-5-5-5--5-5-5-5--|
Ab|--0-0-0-0--0-0-0-0--3-3-3-3--3-3-3-3--|
Eb|--------------------------------------|

0:12
   {Gtr 1
eb|---------------------------------------------|
Bb|------8--------8-10~-----8--------88-1212-8--|
Gb|--------7~-----------------7~----------------|
Db|----10-------10--------10-------10-----------|
Ab|--0--------0---------0--------0--------------|
Eb|---------------------------------------------|
   {Gtr 2
eb|--------------------------------------|
Bb|--------------------------------------|
Gb|--2-2-2-2--2-2-2-2--2-2-2-2--2-2-2-2--|
Db|--2-2-2-2--2-2-2-2--2-2-2-2--2-2-2-2--|
Ab|--0-0-0-0--0-0-0-0--0-0-0-0--0-0-0-0--|
Eb|--------------------------------------|

0:17
   {Gtr 1
eb|-----------------------------------------------------------|
Bb|------8--------8-10~------------------------88-1212-8/10~--|
Gb|--------7~------------9b10r9-------------77----------------|
Db|----10-------10---------------9b10r9--10-------------------|
Ab|--0--------0-----------------------------------------------|
Eb|-----------------------------------------------------------|
   {Gtr 2
eb|--------------------------------------|
Bb|--------------------------------------|
Gb|--------------------5-5-5-5--5-5-5-5--|
Db|--3-3-3-3--3-3-3-3--5-5-5-5--5-5-5-5--|
Ab|--3-3-3-3--3-3-3-3--3-3-3-3--3-3-3-3--|
Eb|--1-1-1-1--1-1-1-1--------------------|

And then comes the verse; I just like the Intro though. :) Hope you enjoyed it! God bless.
Добавлено: 08.03.2012
Вам также может быть интересно:
Другие материалы по этой песне:
  • Аккорды и текст

Страница создана 08.03.2012
http://primanota.ru/high-flight-society/time-is-running-out-chords.htm
Привет, Гость.
Предлагаем пройти революционный курс по гитаре.
Подарок от PrimaNota.Ru, забирай!