PrimaNota.ru - самый крупный в мире бесплатный архив песенных текстов, аккордов, табулатур и нот


High Fidelity - Laura Laura - таба, видео

Регистрация Запомнить меня
Войти через:  Facebook Google Twitter Vk Yandex Mail.ru

High Fidelity - Laura Laura - таба, видео

Печатать
Просмотров: 127
Title: Laura, Laura
Composer: Tom Kitt & Amanda Green
Album: High Fidelity - The Musical

Non-standard tuning: Downtune G to E. 

INTRO

E|---------5-----------5-----------|---------5-----------5-----------|
B|-----7-----------7-----------7---|-----5---------------------------|
E|-0-----------0-----------0-------|---------------------------------|  x2
D|---------------------------------|-0---------------0-----------0---|
A|---------------------------------|-------------4-----------0-------|
E|---------------------------------|---------------------------------|

VERSES

|---------5-----------5-----------|---------5-----------5-----------|
|-----7-----------7-----------7---|-----5---------------------------|
|-0-----------0-----------0-------|---------------------------------|  x8
|---------------------------------|-0---------------0-----------0---|
|---------------------------------|-------------4-----------0-------|
|---------------------------------|---------------------------------|

I made a list of everything
That's gone on between you and me
And even an idiot like me could see

No matter how you add it up
When you read the bottom line
The fault was usually mine.

|---------5-----------5-----------|---------5-----------5-----------|
|-----7-----------7-----------7---|-----5---------------------------|
|-0-----------0-----------0-------|---------------------------------|  x2
|---------------------------------|-0---------------0-----------0---|
|---------------------------------|-------------4-----------0-------|
|---------------------------------|---------------------------------|

The stupid things I've said and done
If I could change just even one

|---------------------------------|---------------------------------|
|-0---------------3---------------|---------------------------------|
|-----0-------0-------0-------0---|-5---------------2---------------|
|---------0---------------0-------|-----0-------0-------0-------0---|
|---------------------------------|---------0---------------0-------|
|---------------------------------|---------------------------------|

the thing I'd say would be:

|-----------------5---------------|-----------------5---------------|
|---------------------------------|---------------------------------|
|-0-----------0-------0-----------|-0-----------0-------0-----------|
|-----0-------------------0-------|---------------------------------|
|---------0-------------------0---|-----0---4---------------4---0---|
|---------------------------------|---------------------------------|

|---------------------------------|---------------------------------|
|-3-----------3---2-----------2---|-0-----------0-------------------|
|---------2---------------2-------|-----------------5-----------5---|
|-----0---------------0-----------|---------4---------------4-------|
|---------------------------------|-----4---------------4-----------|
|---------------------------------|---------------------------------|

Laura, Laura...

|---------------------------------|--------|
|-0-----------------------0-------|--------|
|-------------3-------3-----------|--------|
|---------0-------0---------------|--------|
|-----2---------------------------|--------|
|---------------------------------|--------|

|---------------------------------|---------------------------------|
|---------------------------------|---------------------------------|
|-----------------5-------5-------|-0-----------0---5-------5-------|
|-0-----------0-------4-----------|---------0-----------4-----------|
|---------0-------------------0---|-----0-----------------------0---|
|-----2---------------------------|---------------------------------|

I'm so sorry.

|---------5-----------5-----------|---------5-----------5-----------|
|-----7-----------7-----------7---|-----5---------------------------|
|-0-----------0-----------0-------|---------------------------------|
|---------------------------------|-0---------------0-----------0---|
|---------------------------------|-------------4-----------0-------|
|---------------------------------|---------------------------------|

VERSES

|---------5-----------5-----------|---------5-----------5-----------|
|-----7-----------7-----------7---|-----5---------------------------|
|-0-----------0-----------0-------|---------------------------------|  x8
|---------------------------------|-0---------------0-----------0---|
|---------------------------------|-------------4-----------0-------|
|---------------------------------|---------------------------------|

It's become my trade in stock
To always jump from rock to rock
Chasing fantasies that don't come through.

Thought I was happy just to coast
But it's me who needed you the most.
Of course that's something
I could never own up to.

|---------5-----------5-----------|---------5-----------5-----------|
|-----7-----------7-----------7---|-----5---------------------------|
|-0-----------0-----------0-------|---------------------------------|  x2
|---------------------------------|-0---------------0-----------0---|
|---------------------------------|-------------4-----------0-------|
|---------------------------------|---------------------------------|

I want to look you in the face to say
What I never had the grace to say

|---------------------------------|---------------------------------|
|-0---------------3---------------|---------------------------------|
|-----0-------0-------0-------0---|-5---------------2---------------|
|---------0---------------0-------|-----0-------0-------0-------0---|
|---------------------------------|---------0---------------0-------|
|---------------------------------|---------------------------------|

When you were still with me:

|-----------------5---------------|-----------------5---------------|
|---------------------------------|---------------------------------|
|-0-----------0-------0-----------|-0-----------0-------0-----------|
|-----0-------------------0-------|---------------------------------|
|---------0-------------------0---|-----0---4---------------4---0---|
|---------------------------------|---------------------------------|

|---------------------------------|---------------------------------|
|-3-----------3---2-----------2---|-0-----------0-------------------|
|---------2---------------2-------|-----------------5-----------5---|
|-----0---------------0-----------|---------4---------------4-------|
|---------------------------------|-----4---------------4-----------|
|---------------------------------|---------------------------------|

Laura, Laura...

|---------------------------------|--------|
|-0-----------------------0-------|--------|
|-------------3-------3-----------|--------|
|---------0-------0---------------|--------|
|-----2---------------------------|--------|
|---------------------------------|--------|

|-3---3---3---3---3---3---3---3---|-2---2---2---2---2---2---2---2---|
|-3---3---3---3---3---3---3---3---|-3---3---3---3---3---3---3---3---|
|-0---0---0---0---0---0---0---0---|-2---2---2---2---2---2---2---2---|
|-0---0---0---0---0---0---0---0---|-0---0---0---0---0---0---0---0---|
|---------------------------------|---------------------------------|
|---------------------------------|---------------------------------|

I'm so sorry.

BRIDGE

|---------------------------------|
|---------------------------------|
|---------------------------------|   x5
|-4---4---4---4---4---4---4---4---|
|-4---4---4---5---5---5---5---5---|
|-5---5---5---5---5---5---5---5---|

For everything you're going through
And everything I can't undo,
Please accept this 

|-2--------------------------------|-0------------------------------|
|-3--------------------------------|-0------------------------------|
|-2--------------------------------|-0------------------------------|
|-0--------------------------------|-2------------------------------|
|----------------------------------|-2------------------------------|
|----------------------------------|-0------------------------------|

small             a--                --po--          --lo--  

|-0--------------------------------|--------------------------------|
|-2--------------------------------|--------------------------------|
|-0--------------------------------|--------------------------------|
|-2--------------------------------|--------------------------------|
|-0--------------------------------|--------------------------------|
|----------------------------------|--------------------------------|

--gy.

|---------------------------------|---------------------------------|
|-3-----------3---2-----------2---|-0-----------0-------------------|
|---------2---------------2-------|-----------------5-----------5---|
|-----0---------------0-----------|---------4---------------4-------|
|---------------------------------|-----4---------------4-----------|
|---------------------------------|---------------------------------|

Oh, Laura, Laura,

|---------------------------------|---------------------------------|
|-0-----------0-------------------|---------------------------------|
|-----------------5-----------5---|-2-----------2---0-----------0---|
|---------5---------------5-------|---------0---------------0-------|
|-----5---------------5-----------|-----0---------------0-----------|
|---------------------------------|---------------------------------|

Sweet, sweet Laura


E|-----------------0---------------|-2---------------0---------------|
B|-3-----------3---------------3---|-------------3---------------3---|
E|---------2---------------2-------|---------2---------------2-------|
D|-----0---------------0-----------|-----0---------------0-----------|
A|---------------------------------|---------------------------------|
E|---------------------------------|---------------------------------|

Laura, Laura...

|---------------------------------|--------|
|-0-----------------------0-------|--------|
|-------------3-------3-----------|--------|
|---------0-------0---------------|--------|
|-----2---------------------------|--------|
|---------------------------------|--------|

|-5--------------------------------|-5-------------------------------|
|-7--------------------------------|-5-------------------------------|
|-0--------------------------------|-0-------------------------------|
|-0--------------------------------|-0-------------------------------|
|----------------------------------|---------------------------------|
|----------------------------------|---------------------------------|

For letting you down...             For letting you go...

|-3--------------------------------|-2-------------------------------|
|-3--------------------------------|-3-------------------------------|
|-0--------------------------------|-2-------------------------------|
|-0--------------------------------|-0-------------------------------|
|----------------------------------|---------------------------------|
|----------------------------------|---------------------------------|

I'm so sor--                        --ry.

OUTRO

|---------5-----------5-----------|---------5-----------5-----------|
|-----7-----------7-----------7---|-----5---------------------------|
|-0-----------0-----------0-------|---------------------------------|  x2
|---------------------------------|-0---------------0-----------0---|
|---------------------------------|-------------4-----------0-------|
|---------------------------------|---------------------------------|

|---------5-----------5-----------|---------5-----------5-----------|-2------||
|-----7-----------7-----------7---|-----5---------------------------|-3------||
|-0-----------0-----------0-------|---------------------------------|-2------||
|---------------------------------|-0---------------0---------------|-0------||
|---------------------------------|-------------4-----------0-------|--------||
|---------------------------------|-----------------------------3---|--------||
Добавлено: 08.06.2015
Другие материалы по этой песне:
  • Аккорды и текст

Страница создана 08.06.2015
http://primanota.ru/high-fidelity/laura-laura-chords.htm
Привет, Гость.
Предлагаем пройти революционный курс по гитаре.
Подарок от PrimaNota.Ru, забирай!