PrimaNota.ru - самый крупный в мире бесплатный архив песенных текстов, аккордов, табулатур и нот


The High Curbs - Blonde Haired Fag - таба, видео

Регистрация Запомнить меня
Войти через:  Facebook Google Twitter Vk Yandex Mail.ru

The High Curbs - Blonde Haired Fag - таба, видео

Печатать
Просмотров: 66
-------------------------------------------------------------------------------
                             The High Curbs - Blonde Haired Fag
-------------------------------------------------------------------------------
Tabbed by: Angel Tapia
E-mail: atapia@hightechhigh.org

Tuning: Standard

Listen to the song for the strumming pattern.

Intro:
e|---------------------------------------------------------------------------|
B|---------------------------------------------------------------------------|
G|----------------------------------4-2--------------------------------------|
D|-----------2--2-2---------------------5-2----------Play Two Times----------|
A|------2--5--------5-2-0------2--5---------5-2-0-2--------------------------|
E|-3--3-------------------3--3-----------------------------------------------|

Verse:
e|---------------------------------------------------------------------------|
B|---------------------------------------------------------------------------|
G|----7--9--7----------------------------------------------------------------|
D|-5--7--9--7--Play Eight Times----------------------------------------------|
A|-5--5--7--5----------------------------------------------------------------|
E|-3-------------------------------------------------------------------------|

Chorus:
e|-0-------------------------------------------------------------------------|
B|-1-------------------------------------------------------------------------|
G|-0--9--4-------------------------------------------------------------------|
D|-2--9--4--Three Times,-Then-Play--7--9--Play One Time----------------------|
A|-3--7--2--------------------------7--9--------------------------------------|
E|-x--------------------------------5--7--------------------------------------|

Bridge:
e|---------------------------------------------------------------------------|
B|---------------------------------------------------------------------------|
G|----------------------------------4-2--------------------------------------|
D|-----------2--2-2---------------------5-2----------------------------------|
A|------2--5--------5-2-0------2--5---------5-2-0----------------------------|
E|-3--3-------------------3--3-----------------------------------------------|


************************************

| /   slide up
| \   slide down
| h   hammer-on
| p   pull-off
| ~   vibrato
| +   harmonic
| x   Mute note
| b   Bend
| pb  Pre-bend
| br  Bend release
| pbr Pre-bend release
| brb Bend release bend

************************************
Добавлено: 19.06.2016
Другие материалы по этой песне:
  • Аккорды и текст

Страница создана 18.06.2016
http://primanota.ru/high-curbs/blonde-haired-fag-chords.htm
Привет, Гость.
Предлагаем пройти революционный курс по гитаре.
Подарок от PrimaNota.Ru, забирай!