PrimaNota.ru - самый крупный в мире бесплатный архив песенных текстов, аккордов, табулатур и нот


High And Mighty Color - Ichirin No Hana - текст песни, таба, видео

Регистрация Запомнить меня
Войти через:  Facebook Google Twitter Vk Yandex Mail.ru

High And Mighty Color - Ichirin No Hana - текст песни, таба, видео

Печатать
Просмотров: 280
Es lo mas dificil de la canion :P
Pero ahi esta... lo demas saquenlo uds.

Intro... Todo es con tapping


     S S S S S S  S S S S S S  S S S  S    S S S S S S  S S S S S S S S S S  
E||-------------------------------------|-----------------------------------|
B||-------------------------------------|-----------------------------------|
G||--6---6-9-4-6-11-4-6-9-4-6-12---7-12-|--6---6-9-4-6-11-4-6-9-4-6-9---7-9-|
D||----4-------------------------5------|----4------------------------5-----|
A||-------------------------------------|-----------------------------------|
E||-------------------------------------|-----------------------------------|
B||-------------------------------------|-----------------------------------|


  S S S S  S S S S S S  S S S  S S S    S S S S S S S  S  Q     Q      
-------------------------------------|--------------------------------|
-------------------------------------|--------------------------------|
--6---4-6-11-4-6-9-4-6-12---7-12-6---|--6-9-4-6-9-4-6-12--L-----------|
----4---------------------5--------4-|--------------------------------|
-------------------------------------|--------------------------------|
-------------------------------------|--------------------------------|
-------------------------------------|-------------------------12S----|


Solo...



  T T T T T T T T T T T T T T T T T T T T T T T T T T T T T T T T  
--------5-7-5-----------5-7-5-----------5-7-5-----------5-7-5-----|
--5-7-8-------8-7-5-7-8-------8-7-5-7-8-------8-7-5-7-8-------8-7-|
------------------------------------------------------------------|
------------------------------------------------------------------|
------------------------------------------------------------------|
------------------------------------------------------------------|
------------------------------------------------------------------|


  T  T T  T  T T  T T T  T T  T T T  T T T T T  T T T  T T  S S S  S  
--9-10-9-------------------------------------------------------------|
---------12-10-8------8-10-8-----------------------------------------|
-----------------11-9--------11-9-7------7-9-7-----------------------|
------------------------------------11-9-------11-9-7---------7-9-11-|
------------------------------------------------------10-9-10--------|
---------------------------------------------------------------------|
---------------------------------------------------------------------|


  S  S S S S S  S S S S  S S   E    S  S     E   Q     S  S H           
--------------------9-7-10-9s-17s--15-14-|--12s--7----10-12-9S~--------|
-----------8-7-10-8----------------------|-----------------------------|
--7----9-7-------------------------------|-----------------------------|
----11-----------------------------------|-----------------------------|
-----------------------------------------|-----------------------------|
-----------------------------------------|-----------------------------|
-----------------------------------------|-----------------------------|


   |--3-| |--3-|  |--3-| |--3-|  |--3-| |--3--| |--3--| |--3-|  
   S S  S S  S S  S S  S S  S S  S S  S S  S  S S  S  S S  S S  
--12-9---------9-14-9---------9-12-9-------------------------9-|
-------10---10--------10---10--------10-------------------10---|
----------9--------------9--------------9---------------9------|
------------------------------------------11---------11--------|
---------------------------------------------12-9-12-----------|
---------------------------------------------------------------|
---------------------------------------------------------------|


   |--3--|  |--3--|  |--3--|  |--3--|  |--3--|  |--3--|  |--3--|  |--3--|  
   S  S  S  S  S  S  S  S  S  S  S  S  S  S  S  S  S  S  S  S  S  S  S  S  
--14----------------14----------------14----------------------------------|
-----14----------14----14----------14----14----------------------------14-|
--------16----16----------16----16----------16----------------------16----|
-----------16----------------16----------------16----------------16-------|
--------------------------------------------------17-14----14-17----------|
--------------------------------------------------------14----------------|
--------------------------------------------------------------------------|


   |--3--|  |--3--|  |--3--|  |--3--|  |--3--|  |--3--|             
   S  S  S  S  S  S  S  S  S  S  S  S  S  S  S  S  S  S     Q       
--15----------------15----------------15----------------15g17S~----|
-----15----------15----15----------15----15----------15------------|
--------16----16----------16----16----------16----16---------------|
-----------16----------------16----------------16------------------|
-------------------------------------------------------------------|
-------------------------------------------------------------------|
-------------------------------------------------------------------|


   S  S  S  S  S  S  S  S  S  S  S  S  S  S  S  S  
--17-------15-------17-------15-------12-------15-|
-----15-12----12-15----15-12----12-10----10-12----|
--------------------------------------------------|
--------------------------------------------------|
--------------------------------------------------|
--------------------------------------------------|
--------------------------------------------------|


                                          W                       
   S  S  S  S S  S S  S  S  S S  S S S  S S     W                 
--------12------10------12------10-----10-7S-|--L----------------|
--12-10----10-8----8-10----10-8----8-7-------|-------------------|
---------------------------------------------|-------------------|
---------------------------------------------|-------------------|
---------------------------------------------|-------------------|
---------------------------------------------|-------------------|
---------------------------------------------|-------------------|

Eso es todo :P
HandMC la hace xD
Добавлено: 15.04.2012
Другие материалы по этой песне:

Страница создана 01.03.2012
http://primanota.ru/high-and-mighty-color/ichirin-no-hana-chords.htm
Привет, Гость.
Предлагаем пройти революционный курс по гитаре.
Подарок от PrimaNota.Ru, забирай!