PrimaNota.ru - самый крупный в мире бесплатный архив песенных текстов, аккордов, табулатур и нот


High And Mighty Color - Hot Limit - таба, видео

Регистрация Запомнить меня
Войти через:  Facebook Google Twitter Vk Yandex Mail.ru

High And Mighty Color - Hot Limit - таба, видео

Печатать
Просмотров: 116
Авторы музыки: 浅倉大介
Авторы текста: 井上秋緒
-------------------------------------------------------------------
                HOT LIMIT - HIGH and MIGHTY COLOR
-------------------------------------------------------------------
Tabbed by: Jeff Tang
Email: jeff043@gmail.com

Tuning: Standard (EADGBe)

  Intro
e|----------------------------------------------------------------|
B|----------------------------------------------------------------|
G|-----------------------------------------6-8-----6-8------------|
D|-6-8-4-6-8---4-6-8---4-6-8---4-6-8---6-8-----6h8----------------|
A|-6-8-4-6-8---4-6-8---4-6-8---4-6-8------------------------------|
E|-4-6-2-4-6---2-4-6---2-4-6---2-4-6------------------------------|

  Chorus Chords (listen to song for rhythm)
e|----------------------------------------------------------------|
B|----------------------------------------------------------------|
G|----8--11-13-8--8b10-8-6-------8--11----------------------------|
D|-8--8--11-13-8-----------6--8--8--11-11-6---10-8----------------|
A|-8--6--9--11-6--------------8--6--9--11---8---------------------|
E|-6--------------------------6--------9--------------------------|

  Verse (mute notes where appropiate)
e|----------------------------------------------------------------|
B|----------------------------------------------------------------|
G|----------------------------------------------------------------|
D|----------------------------------------------------------------|
A|---------4----------6----------4--------------------------------|
E|-6-6-4-6----6-6-4-6----6-6-4-6----4-2-3-4-----------------------|
   x x x x    x x x x    x x x x    x x x x

  Pre-Chorus
e|----------------------------------------------------------------|
B|----------------------------------------------------------------|
G|-2-----4--6-8-9-11--2-----8-----6-------------------------------|
D|-2--4--4------------2--4--8--6----6-----------------------------|
A|-0--4--2--4-6-7-9---0--4--6--6------6---------------------------|
E|----2------------------2-----4--------4-------------------------|


  Verse Variation (@ 2:29)
e|----------------------------------------------------------------|
B|----------------------------------------------------------------|
G|----------------6-8-----6-8-------------------------------------|
D|-8--4-6-8---6-8-----6h8-----------------------------------------|
A|-8--4-6-8-------------------------------------------------------|
E|-6--2-4-6-------------------------------------------------------|

  Outro
e|----------------------------------------------------------------|
B|---------------------------------------------9-11------9-11-----|
G|---------------------------6-8-----6-8--8-10------8h10----------|
D|-----------------------6-8-----6h8---------------------------8--|
A|---------4----------6----------------------------------------8--|
E|-6-6-4-6----6-6-4-6------------------------------------------6--|
   x x x x    x x x x


************************************

| /   slide up
| \   slide down
| h   hammer-on
| p   pull-off
| ~   vibrato
| +   harmonic
| x   Mute note
| b   Bend
| pb  Pre-bend
| br  Bend release
| pbr Pre-bend release
| brb Bend release bend

************************************
Добавлено: 18.06.2012
Другие материалы по этой песне:

Страница создана 12.05.2012
http://primanota.ru/high-and-mighty-color/hot-limit-chords.htm
Привет, Гость.
Предлагаем пройти революционный курс по гитаре.
Подарок от PrimaNota.Ru, забирай!