PrimaNota.ru - самый крупный в мире бесплатный архив песенных текстов, аккордов, табулатур и нот


Hiding With Girls - Shortround - текст песни, таба, видео

Регистрация Запомнить меня
Войти через:  Facebook Google Twitter Vk Yandex Mail.ru

Hiding With Girls - Shortround - текст песни, таба, видео

Печатать
Просмотров: 100
-------------------------------------------------------------------------------
                          Hiding With Girls - Shortround
-------------------------------------------------------------------------------
Tabbed by: Adam Cowley
Email: adam@areasix.co.uk

Tuning: Drop C


d|-----------------------|-----------------------|-----------------------|-----------------------|
a|-----------------------|-----------------------|-----------------------|-----------------------|
f|-----------------------|-----------------------|-----------------------|-----------------------|
c|--10-10-10-10----------|--10-10-10-10----------|--7--7--7--7-----------|--7--7--7--7-----------|
g|--10-10-10-10----------|--10-10-10-10----------|--7--7--7--7-----------|--7--7--7--7-----------|
c|--10-10-10-10----------|--10-10-10-10----------|--7--7--7--7-----------|--7--7--7--7-----------|
 |
d|--------------------0--|--------------------0--|--------------------0--|--------------------0--|
a|---------------1-3-----|---------------1-3-----|---------------1-3-----|---------------1-3-----|
f|-----------------------|-----------------------|-----------------------|-----------------------|
c|-----------------------|-----------------------|-----------------------|-----------------------|
g|-----------------------|-----------------------|-----------------------|-----------------------|
c|-----------------------|-----------------------|-----------------------|-----------------------|


d|---------------------------------|---------------------------------|
a|o--------------------------------|---------------------------------|
f|---------------------------------|---------------------------------|
c|--10-10-10-10---10-10-10--10-10--|--10-10-10-10---10---10----9h10--|
g|o-10-10-10-10---10-10-10--10-10--|--10-10-10-10---10---------------|
c|--10-10-10-10---10-10-10--10-10--|--10-10-10-10---10------10-------|
                     x  x   x   x                           x 


----------------------------|-----------------------------------|
----------------------------|-----------------------------------|
-------------------------7--|-----------------------------------|
--7-7-7-7------10---9h10----|--7-7-7-7---7-7--7--7-7/9-9--(10)--|
--7-7-7-7-------------------|--7-7-7-7---7-7--7--7-7/9-9--(10)--|
--7-7-7-7--7-7----7---------|--7-7-7-7---7-7--7--7-7/9-9--(10)--|
           x x    x                      x x     x     x

                            Second Time:
                            |------------------------|
                            |------------------------|
                            |------------------------|
                            |--5-5-5-5--5-5-5-5-5-5--|
                            |--5-5-5-5--5-5-5-5-5-5--|
                            |--5-5-5-5--5-5-5-5-5-5--|
                                        x x x x x x

Guitar 2 plays the same as before.




Pre chorus:  ("Sobering so suddenly...")

|-------------------|------------------|-------------------|----------------------------|
|-------------------|------------------|-------------------|----------------------------|
|-------9---------7-|-------4--------2-|-------9---------7-|-5-5-5-5-5-5----------------|
|----7---------5----|----2--------2----|----7---------5----|-5-5-5-5-5-5----5-5-5-5-5-5-|
|-8---------7-------|-3--------0-------|-8---------7-------|-3-3-3-3-3-3----5-5-5-5-5-5-|
|-------------------|------------------|-------------------|----------------5-5-5-5-5-5-|


Fill/Chorus Lead
|---------------|----------------|
|--------7p0----|-----12p0-7p0---|
|---5p0---------|--5p0-----------|
|---------------|(lead variation)|
|---------------|----------------|
|---------------|----------------|



Chorus:

|-------------------|---------------------------|------------------|------------------|----------|
|-------------------|---------------------------|------------------|------------------|----------|
|-------------------|---------------------------|------------------|------------------|----------|
|--7-7-7-7-7-7-7-7--|--10-10-10-10-10-10-10-10--|--10/5-5-5-5-5-5--|--10/5-5-5-5-5-5--|--5~--9~--|
|--7-7-7-7-7-7-7-7--|--10-10-10-10-10-10-10-10--|--10/5-5-5-5-5-5--|--10/5-5-5-5-5-5--|--5~--9~--|
|--7-7-7-7-7-7-7-7--|--10-10-10-10-10-10-10-10--|--10/5-5-5-5-5-5--|--10/5-5-5-5-5-5--|--5~--9~--|
               x                         x                    x                  x






Bridge:

Guitar One:
|-------------------------------|
|-------------------------------|
|--5p0--5p0--5p0--5p0--5h7-7-7--|
|-------------------------------|
|-------------------------------|
|-------------------------------|


|-----------------------|-----------------------|-----------------------|-----------------------|
|-----------------------|-----------------------|-----------------------|-----------------------|
|-----------------------|-----------------------|-----------------------|-----------------------|
|--3-3-x-x-x-3-3-x-x-x--|--5-5-x-x-x-5-5-x-x-x--|--7-7-x-x-x-7-7-x-x-x--|--5-5-x-x-x-5-5-x-x-x--|
|--3-3-x-x-x-3-3-x-x-x--|--5-5-x-x-x-5-5-x-x-x--|--7-7-x-x-x-7-7-x-x-x--|--5-5-x-x-x-5-5-x-x-x--|
|--3-3-x-x-x-3-3-x-x-x--|--5-5-x-x-x-5-5-x-x-x--|--7-7-x-x-x-7-7-x-x-x--|--5-5-x-x-x-5-5-x-x-x--|









| /  slide up
| \  slide down
| h  hammer-on
| p  pull-off
| ~  vibrato
| +  harmonic
| x  Mute note
===============================================================================
Добавлено: 19.07.2012
Вам также может быть интересно:
Другие материалы по этой песне:
  • Аккорды и текст

Страница создана 09.04.2012
http://primanota.ru/hiding-with-girls/shortround-chords.htm
Привет, Гость.
Предлагаем пройти революционный курс по гитаре.
Подарок от PrimaNota.Ru, забирай!