PrimaNota.ru - самый крупный в мире бесплатный архив песенных текстов, аккордов, табулатур и нот


Hideki Taniuchi - This World Iii - таба, видео

Регистрация Запомнить меня
Войти через:  Facebook Google Twitter Vk Yandex Mail.ru

Hideki Taniuchi - This World Iii - таба, видео

Печатать
Просмотров: 22
Уроки эстрадного вокала в Санкт-Петербурге
----------------------------------------------------------------------------------------------
                                This world III - Hideki Taniuchi
----------------------------------------------------------------------------------------------
Tabbed by: Horpach

Original Soundtrack: Gyakkyou Burai Kaiji - Ultimate Survivor
Song : This world III
Artist : Hideki Taniuchi (www.last.fm/music/タニウチヒデキ)

This is my first tab and I hope that you enjoy it.
It's sounds like this but i'm not sure, enjoy!

Tuning: Standard

Riff A:

e|-------------------------------------------------------------------------------------------|
B|--6-----6-----6-5-----5-----5-3-----3-----3-5-----5-----5-6-----6-----6-5-----5-----5-3----|
G|----3-----3-------3-----3-------3-----3-------3-----3-------3-----3-------3-----3-------3--|
D|------3-----3-------3-----3-------3-----3-------3-----3-------3-----3-------3-----3--------|
A|-------------------------------------------------------------------------------------------|
E|-------------------------------------------------------------------------------------------|

Riff B:

e|-------------------------------------------------------------------------------------------|
B|--5-----5-----5-3-----3-----3-1-----1-----1-3-----3-----3-5-----5-----5-3-----3-----3-1----|
G|----2-----2-------2-----2-------2-----2-------2-----2-------2-----2-------2-----2-------2--|
D|------2-----2-------2-----2-------2-----2-------2-----2-------2-----2-------2-----2--------|
A|-------------------------------------------------------------------------------------------|
E|-------------------------------------------------------------------------------------------|

Riff C:
[02:00 - 02:11]

e|-------------------------------------------------------------------------------------------|
B|--6-----6-----6-5-----5-----5-8-----8-----8-5-----5-----5-6-----6-----6-5-----5-----5-3----|
G|----3-----3-------3-----3-------3-----3-------3-----3-------3-----3-------3-----3-------3--|
D|------3-----3-------3-----3-------3-----3-------3-----3-------3-----3-------3-----3--------|
A|-------------------------------------------------------------------------------------------|
E|-------------------------------------------------------------------------------------------|

Riffs sequence:

Riff A - 
Riff B - 
Riff A - 
Riff B - 
Distortion Riff A - 
Distortion Riff B - 
Distortion Riff A - 
Distortion Riff B - 
Distortion Riff C - 
Distortion Riff B - 
Distortion Riff A - 
Distortion Riff B -

************************************

| /   slide up
| \   slide down
| h   hammer-on
| p   pull-off
| ~   vibrato
| +   harmonic
| x   Mute note
| b   Bend
| pb  Pre-bend
| br  Bend release
| pbr Pre-bend release
| brb Bend release bend

************************************
Добавлено: 20.06.2016
Другие материалы по этой песне:
  • Аккорды и текст

Страница создана 20.06.2016
http://primanota.ru/hideki-taniuchi/this-world-iii-chords.htm
Привет, Гость.
Предлагаем пройти революционный курс по гитаре.
Подарок от PrimaNota.Ru, забирай!