PrimaNota.ru - самый крупный в мире бесплатный архив песенных текстов, аккордов, табулатур и нот


Hidden In Plain View - The Lake House - таба, видео

Регистрация Запомнить меня
Войти через:  Facebook Google Twitter Vk Yandex Mail.ru

Hidden In Plain View - The Lake House - таба, видео

Печатать
Просмотров: 61
Hidden In Plain View
The Lake House
Resolution
2007
Submitted by: paramore_fans@yahoo.com

Tuning: Standard EADGBe

Chords used:
A -   x02220
G -   320033
Em -  022000
D -   xx0232
F#m - 244222
E  -  022100
Bm -  x24432

Intro: A--G x2


Guitar 2:
e|--------12-|-----------10---------9------9----|
B|----10-----|-------10--------10-----10-----10-|
G|-9---------|-9--7----------7----7------7------|
D|-----------|----------------------------------|
A|-----------|----------------------------------|
E|-----------|----------------------------------|
      x2

e|--------12---------12h14p12--10p9-|--------10---------7------------|
B|----10---------10-----------------|----10--------10-----10---10/12-|
G|-9----------9---------------------|-7----------7----7------7-------|
D|----------------------------------|--------------------------------|
A|----------------------------------|--------------------------------|
E|----------------------------------|--------------------------------|


Verse 1:
A
  Looking down, all the lights
        G
are blinking in my head
We're almost done
         A
And it's too cold to go
                 G
out off into the unknown
                      Em
That I once called my home
             G
It's been so long


Chorus:
    A
And every moment bleeds
          D
into one, bleeds into one
bleeds into one
      A            D
We're all falling apart
falling apart
We are

Interlude: A--G (x2)


Verse 2:
A
  I sat down to the seat
           G
I'm shaking Held on by my
                     A
fingernails breaking off
In the air, I'm alone
            G
My thoughts I know
Cause I can't keep
   Em              G
my head up off the wheel
   Em             G
My eyes awake I'm grow
sin it's over now


(Repeat Chorus except last line)


Bridge:
F#m           E
  So count on me for a
F#m         A    E
lifetime of shame
     F#m
Am I home?
         E
Count on me to
Bm       E(hold)
bleed it into one
                     A(plucking)-D-A-D
I'll get myself back home


Outro: A--D (x4)
F#m        E           A(hold)
  Count on me count on me
Добавлено: 05.10.2013
Другие материалы по этой песне:
  • Аккорды и текст

Страница создана 05.10.2013
http://primanota.ru/hidden-in-plain-view/the-lake-house-chords.htm
Привет, Гость.
Предлагаем пройти революционный курс по гитаре.
Подарок от PrimaNota.Ru, забирай!