PrimaNota.ru - самый крупный в мире бесплатный архив песенных текстов, аккордов, табулатур и нот


Hidden In Plain View - The Chaser - текст песни, таба, видео

Регистрация Запомнить меня
Войти через:  Facebook Google Twitter Vk Yandex Mail.ru

Hidden In Plain View - The Chaser - текст песни, таба, видео

Печатать
Просмотров: 100
hidden in plain view
the chaser

intro
|-----------------------------------|
|-------10----10--------11------11--|
|-----8---------------10------------|
|-7h9-----7h9----11p9-----11p9------|
|-----------------------------------|
|-----------------------------------|

verse
|---------------|
|---------------|
|-9---9----9~---|
|--9---9--9-----|
|---11--11------|
|---------------|

intro

chorus
|-------------|---------|
|-------------|---------|
|--777--------|--7-8-5--|
|--777---000--|---------|
|--555---000--|--5-6-3--|
|--------000--|---------|

intro

verse

1:18
|------------------|
|------------------|
|--141414--151515--|
|--121212--151515--|
|--121212--131313--|
|------------------|


chorus

bridge
|---------------------------------------------|
|---------------------------------------------|
|-10-9-7-5------14-13-11-9------------10~-----|
|----------0000-------------0000--7-8-----7~--|
|-8--7-5-3-0000-12-11-9--7--0000--------------|
|----------0000-------------0000--------------|
           ....		    ....


chorus



Добавлено: 05.10.2013
Другие материалы по этой песне:
  • Аккорды и текст

Страница создана 18.07.2012
http://primanota.ru/hidden-in-plain-view/the-chaser-chords.htm
Привет, Гость.
Предлагаем пройти революционный курс по гитаре.
Подарок от PrimaNota.Ru, забирай!