PrimaNota.ru - самый крупный в мире бесплатный архив песенных текстов, аккордов, табулатур и нот


Hidden In Plain View - Off My Shoulders - таба, видео

Регистрация Запомнить меня
Войти через:  Facebook Google Twitter Vk Yandex Mail.ru

Hidden In Plain View - Off My Shoulders - таба, видео

Печатать
Просмотров: 89
Уроки эстрадного вокала в Санкт-Петербурге
Hidden In Plain View
Off My shoulders
Resolution
2007
Submitted by: paramore_fans@yahoo.com

Key: D

Tuning: Standard EADGBe

Chords used:
D -   xx0232
A -   x02220
Bm -  x24432
G -   320033
Em -  022000


Verse 1:
D
  A right step in the wrong direction
Bm
  Hesitant with no hesitation
G                          D
You know where you don't be-long
(It all goes wrong so wrong)
D                                  Bm
  Up to the act to the chemical fiction
                                      G
There's no such person I'll always pretend
                      D
For me to be somebody anyone but me


Refrain 1:
   Em                        G
So Go Hold me up to break me down
                                    Em
(They're never gonna take you) Just go
                           G
Just pick me up to push me down


Chorus:
D                         Bm
  Take these wings off my shoulders
             D
I'm ready to fly
                       Bm
Push me off or push me over
                   Em
It's too hard to decide tonight
                     G
My world is breaking down tonight
            A        Em
My arms are breaking off tonight
So keep your balance
    G                     A  D(hold)
And keep your eyes closed so tight tonight


Verse 2:
D
  Farewell to the dreams we wish for
Bm
Kiss it goodbye come on kiss it once more
G                                    D
  And all their best was bigger than you
                 A
It's all too big for you
D
  I'm out of breath and I can't slow down
 Bm
Enough is enough, the plot has burned out
G                                     D
  Breathe in breathe out it's all for you
It's that all we can do


Refrain 2:
   Em                        G
So Go Hold me up to break me down
                                    Em
(They're never gonna take you) Just go
                           G
Just pick me up to push me down
D
  So go away

Chorus 2:
D                         Bm
  Take these wings off my shoulders
             D
I'm ready to fly
                       Bm
Push me off or push me over
                   Em
It's too hard to decide tonight
                     G
My world is breaking down tonight
            A        Em
My arms are breaking off tonight
So keep your balance
    G                     A
And keep your eyes closed so


Bridge:
Bm              A
  So hold on to me
Tell me every everything
G   Em   D        Bm
Say everything to me
   G          A
So hold on to me
Tell me every everything
G   Em   A    D(hold)
Say everything to me


(Repeat Chorus 2)


Outro: D--Bm-- x2 Em--G(hold)

Guitar 2:
e|-12-12-12---------------------------------|
B|-------------------12-12-9-9-9-9-10-10-10-|
G|----------9-9-9-9-------------------------|
D|------------------------------------------|
A|------------------------------------------|
E|------------------------------------------|

e|-12-12-12------------------------9-9-9-|
B|-------------------12-12-9-9-9-9-------|
G|----------9-9-9-9----------------------|
D|---------------------------------------|
A|---------------------------------------|
E|---------------------------------------|

e|-12-12-12---------------------------------|
B|-------------------12-12-9-9-9-9-10-10-10-|
G|----------9-9-9-9-------------------------|
D|------------------------------------------|
A|------------------------------------------|
E|------------------------------------------|

e|-12-12-12-12-------------12-12-12-12-12-12-12-12-|
B|-------------12-14-14-14-------------------------|
G|-------------------------------------------------|
D|-------------------------------------------------|
A|-------------------------------------------------|
E|-------------------------------------------------|

e|------------------|
B|------------------|
G|-----4-------4----|
D|-2-2---2-2-2----5-|
A|-2-2---2-2-2----5-|
E|-0-0---0-0-0----3-|
Добавлено: 07.09.2013
Другие материалы по этой песне:
  • Аккорды и текст

Страница создана 07.09.2013
http://primanota.ru/hidden-in-plain-view/off-my-shoulders-chords.htm
Привет, Гость.
Предлагаем пройти революционный курс по гитаре.
Подарок от PrimaNota.Ru, забирай!