PrimaNota.ru - самый крупный в мире бесплатный архив песенных текстов, аккордов, табулатур и нот


Hidden In Plain View - Life In Dreaming - аккорды и текст, видео

Регистрация Запомнить меня
Войти через:  Facebook Google Twitter Vk Yandex Mail.ru

Hidden In Plain View - Life In Dreaming - аккорды и текст, видео

Печатать
Просмотров: 57
Life In Dreaming
Hidden In Plain View
Hidden In Plain View
Life In Dreaming
2005
Submitted by: paramore_fans@yahoo.com

Tracklist:
1. Bleed For You
2. Ashes, Ashes
3. A Minor Detail
4. The Point
5. Twenty Below
6. Garden Statement
7. The Innocent Ones
8. American Classic
9. In Memory
10. Top 5 Addictions
11. Halcyon Daze

______________________________________

1.) Bleed For You

Key: F

Tuning: Standard EADGBe

Chords used:
Am - x02210
Bb - x13331
F -  133211
Gm - 355333
Dm - xx0231


Intro:

Guitar 2:
e|---------8-------|
B|---8-6-----6---8-|
G|-5-----5-----5---|
D|-----------------| x16
A|-----------------|
E|-----------------|


then Am--Bb--F---Am--Bb--


Verse 1:
Am
  The cold concrete
cuts against her back
         F
And her spirit spills with
blood on to the pavement
Am
  Hands tied so tight
behind your neck
      F
And a silence falls
and everything changes
           Am
Everything dies to you
                          F
Nothing's alive to you anymore
I guess you've gotten more
than you may have wanted


Chorus:
Dm
  If I could take your
Bb
pain away (Pain away)
               F
I would scream for you
               Gm
And I'll bleed for you
(For you feel this way)
So you'll never feel
     Dm
this way (Again)
When you're in my
Bb
arms (Again)
               F
I would scream for you
             Gm
I will bleed for you


Verse 2:
Am
  She drowns herself until
the images erase
F
  But the skin is bruised
all along her thighs
Am
  Nightmares repeat refrain
the memories remain
F
  The mental photographs
haunting all the time
              Am
She shuts her eyes to you
She tries to hide from you
    F
She falls asleep into
dreams where she is safe


(Repeat Chorus)


Bridge:
  F
So put the weight
on my shoulders
                   Bb
And the pain in my heart
Tie the knots in my stomach
                    F
And let it tear me apart
           Bb
So I could be
Everything you need
Dm
  Put the weight
            F
on my shoulders
                   Bb
And the pain in my heart
                       C
Tie the knots in my stomach
                Dm  F
Let it tear me apart
            Bb  C
So tear me apart
You say you are


Verse 3:
Am
  And this silence strips me bare
             F
And the body pins me down
Ive never been so scared to breathe
                 Am
Afraid to make a sound
          F
But all I know
Kick and scream and bite and bleed
and make believe it's all a dream


(Repeat Chorus)


Outro:
Dm Bb
   Pain away
               F      Gm
I won't scream for you
             Dm
I will bleed for you
Bb       F Gm
Pain away
             Dm(hold)
I will bleed for you

____________________________________

2.) Ashes Ashes

Key: F

Tuning: Standard EADGBe

Chords used:
Dm -  xx0231
C -   x32010
F -   133211
Am -  x02210
C/E - 032xxx


Intro: Dm--F-Am- x2


Chorus 1:
Am
  i hope this terrifies you
C
  immoral suicide which
Am
burns inside you
     C
i'll never let you out
Am                 C
  until you realize knee deep
           Am      C
or buried alive in lies


Verse 1:
Am
  go, go, go believe
C
  in everything u need
Am
  take everything for granted
C
  distorting every memory
Am
  knee deep and alone
C                      Am
  you like it when you know
     C
just what im thinking


Chorus 2:
Am
  i hope this terrifies you
C
  immoral suicide which
Am
burns inside you
     C
i'll never let you out
Am                 C
  until you realize knee deep
           Am      C
or buried alive in lies
Dm
this time i wont let you in


Verse 2:
Dm
sweet like a child
F        Am
act like children
    Dm
you run from your problems
F            Am
blurring the visions
   Dm        F
we set in our sides
    Am
(so what would you like)
    Dm            F        Am
you turned around something


Bridge:
        Dm
And the kids are screaming
       C/E
at the tops of their lungs
               F
while they are pointing their
                     Gm
fingers like they're loaded guns
           Dm
behind the places and backdrops
C/E
firing explosives
F
bridges are burning
   Gm       Dm   C
we all fall down
            Dm
we all fall down
we all fall down
            C
we all fall down
we all fall down


Chorus 3:
Dm
  i hope this terrifies you
C                        Dm C
  i know it terrifies you


Outro:
Dm        C
  ill be ok just go just go
Dm      C
  as we all fall down
Dm         C
  ill be ok
Dm
  let the bridges burn
   C        Dm(hold)
we all fall down

________________________________

3.) A Minor Detail

Tuning: Standard EADGBe

Chords used:
Am - x02210
G -  320033 or 320003
C -  x32010
F -  133211
Em - 022000
D -  xx0232

Intro:

Part 1: Chordless

Step up to the plate to play the game
Save yourself and quit to play it safe

Part 2: Chords entering in

Guitar 1: Am--G--C--F-- (x2)

Guitar 2: Tabbed (x8)
e|---------3---------3----------|
B|-1-3-1-0---1-3-1-0---1-3-1-0--|
G|------------------------------|
D|------------------------------|
A|------------------------------|
E|------------------------------|

Verse 1:
F
  Step up to the plate to play the game
G
  Save yourself and quit to play it safe
    F
The boy has got skill, but the girl's got notion
      Em
He's smart enough, but he lacks devotion
     F
Your reasons rhyme, but your rhymes keep scheming
           G
And that's not enough so just keep on dreaming alone
F                        Em
  And I know that you'll never make it on your own


Chorus:
Am             G
  I know you'll never get it right
    C                        F
You only take it so far then leave it all behind
Am               G
  So tonight I'm making up my mind
  C                             F
Before we take this too far and leave it all behind


Verse 2:
F
  So rise up to the occasion
              G
'Cause you're all excuse with no explaination
           F                                        Em
You've got minor details filling major gaps in your memory
                             F
So just trace your footsteps back to where this all started
  G
Before you got yourself broken hearted
F
Now just keep your head down
              Em
'Cause you'll never figure it out


(Repeat Chorus)


Bridge:
F-G-F-G
Yeah
         C             D              C          D
And I'll miss you when I'm gone, I'll sing you a sad song
  F-G-F-G
tonight
         C             D              C          D
And I'll miss you when I'm gone, I'll sing you a sad song


Whispering:
Am
  One more chance to get this right
One more chance to get it right
One more chance to get this right
                 Em
But you'll never get it right

(Repeat Chorus)

Interlude: Am (x4)

Guitar 2: (x4)
e|-------12-------12--|
B|----13-------13-----|
G|-14-------14--------|
D|--------------------|
A|--------------------|
E|--------------------|

F
  Step up to the plate to play the game
G
  Save yourself and quit to play it safe

__________________________________________

4.) The Point

Key: D

Tuning: Standard EADGBe

Chords used:
D/F# - 2x023x
G -    320033
D -    xx0232
A -    x02220
A/C# - x476xx


Intro:

Guitar 1:
     D/F#       G         D         A
e|---------|---------|---------|---------|
B|---------|---------|-----3---|---------|
G|-----2---|-----2---|---2---2-|-----2---|
D|---0---0-|---0---0-|-0-------|---2---2-| x2
A|---------|---------|---------|-0-------|
E|-2-------|-3-------|---------|---------|
     x2         x2        x2        x2

Guitar 2:
     D/F#       G            D             A
e|-----0---|-----0---|---0-2----0-2---|---0-2---------|
B|---3---3-|---3---3-|--------------2-|-------2---3-3-|
G|---------|---------|----------------|---------------|
D|---------|---------|-0------0-------|---------------| x2
A|---------|---------|----------------|-0-------0-----|
E|-2-------|-3-------|----------------|---------------|
     x2         x2


Verse 1:
D/F#          G
  My voice is tired
      D
I can barely speak
      A         D/F#
a whisper these words
             G
We clear our minds
And these broken
D
bottles and glasses
A
  Heal our lives
   D/F#
So drinks to the skies
    G
and blood to your eyes
     D                A
This rooftop is understanding
   D/F#
So swallow your pride
   G
or choke till you die
      D                A
Cause this fall's unforgiving


Refrain:
A/C#              D
  So call on your angels
   G
To get your fall tonight
A/C#                   D
  And I'll crawl on my hands
        G
Pouring out my insides


Chorus:
     D    A/C# G
I'll wait for  you
                      D
Hoping to change your mind
         A/C#      G
Hoping's all I can do


Verse 2:
D/F#             G
  These days are tired and
    D              A
the nights are overwhelming
       D/F#
As we spoke through silence
  G
A routine silence
     D               A
with nothing more to say
   D/F#(silent)
So drinks to the skies
    G
And blood to your eyes
D             A
I'll be understanding
  D/F#(distortion) G
Tonight
     D
I'll understand
A(hold)
everything tonight


(Repeat Chorus twice)


Bridge:
D/F#           G
  And I'm dying coz
you're leaving
D
Hopes abandoned my
A
heart's still beating
D/F#          G
  But I never gave up trying
      D              A
I did everything for you
D/F#(hold) G(hold)
  I did    everything


Interlude: D-A/C#-G x2


Outro:
     D    A/C# G  A-A-A-D(hold)
I'll wait for  you

____________________________________

5.) 20 Below

Key: G

Tuning: Standard EADGBe

Chords used:
Em -  022000 or Em7 - 022033
C -   x32010 or C9 -  x32033
G -   320033
D -   xx0232
Am -  x02210
G/B - x2x033


Verse 1:
Em                               C
  This puzzled look you stare to me says
                   G
"You put me back together"
           D        C              Em
Her head's down she waits impatiently
                C
Scattered in my heart
                    G
torn up and ripped apart
D      C
  It's ripped apart


Guitar 2: Verse 1
e|----3---5---3-|
B|--3---3---3---|
G|--------------|
D|--------------| x8
A|--------------|
E|--------------|

Guitar 3: Verse 1
e|-------------3-|
B|-0-1-0-3-1-0---|
G|---------------|
D|---------------| x4
A|---------------|
E|---------------|


Verse 2: Bass enters
Em
  And I know I should have known
       C
By the times she looked at me
G
Brace yourself
         D       C
Strength finds a place in me


Guitar 2: Verse 2
e|-2-----3-------|
B|---3-----0-----|
G|-----0-----0---|
D|---------------| x4
A|---------------|
E|---------------|

Guitar 3: Verse 2
e|-------------3-|
B|-0-1-0-3-1-0---|
G|---------------|
D|---------------| x4
A|---------------|
E|---------------|


Chorus:
Em             C
  Just wait and you'll see
       G
you're everything I want
D           C
  And don't take this from me
Em             C
  Just wait and you'll see
       G
you're everything I want
D                 C
  Don't take this from me now


Guitar 2: Chorus
    Em        C          G    D
e|-----|--------------|-----|---|
B|-----|------3-1-0---|-----|---|
G|-2h4-|-2h4--------0-|-2h4-|-2-|
D|-----|--------------|-----|---| x2
A|-----|--------------|-----|---|
E|-----|--------------|-----|---|

Guitar 3: Chorus
e|-2-2-2-2-3-3-3-3-5-5-5-5-3-3-3-3-----------|
B|-3-3-3-3-3-3-3-3-3-3-3-3-3-3-3-3-----------|
G|-------------------------------------------|
D|-------------------------------------------|
A|-------------------------------------------|
E|-------------------------------------------|

e|-3-2----3-2----3-2----3-2-5-7-----|
B|-----3------3------3----------7-8-|
G|----------------------------------|
D|----------------------------------|
A|----------------------------------|
E|----------------------------------|


Interlude:

Em--C-- x2

Guitar 2: Interlude
     Em         C
e|-0-0-0-0-|-0-0-0-0-|
B|-0-0-0-0-|-1-1-1-1-|
G|-0-0-0-0-|-0-0-0-0-|
D|-2-2-2-2-|-2-2-2-2-|
A|-2-2-2-2-|-3-3-3-3-|
E|-0-0-0-0-|---------|

    Em       C
e|-------|-------|
B|-----3-|-----3-|
G|-2h4---|-2h4---|
D|-------|-------|
A|-------|-------|
E|-------|-------|


Guitar 3: Interlude
        Em              C
e|-----7------10-|-----7------10-|
B|-8------8------|-8------8------|
G|---7------7----|---7------7----|
D|---------------|---------------|
A|---------------|---------------|
E|---------------|---------------|

         Em                  C
e|-2--2h3p2---------|-2--2h3p2---------|
B|----------3--1--0-|----------3--1--0-|
G|------------------|------------------|
D|------------------|------------------|
A|------------------|------------------|
E|------------------|------------------|
         x2                  x2


Verse 3:
Em
  With the wind strong in my
C                         G
face I'm still staggering through
                  D
I'm closer to the ground
            C
than I will ever get to you
Em                     C
  Dirt deep beneath my fingernails
                    G
I'm gripping to the floor
                          D
I'm searching through the world
       C
always looking for something more


(Repeat Chorus)


Interlude: Beat Will change from fast to slow
Em---, Em--G--D--C-G/B x2


Guitar 2:
   Em   G   D   C   G/B
e|----|---|---|---|------|
B|----|---|---|---|------|
G|----|---|---|-5-|-7--9-|
D|----|---|---|-x-|-x--x-|
A|----|---|---|-3-|-5--7-|
E|----|---|---|---|------|

   Em   G      D       C   G/B
e|----|---|----------|----|----|
B|----|---|----------|----|----|
G|----|---|-7--9--11-|-17-|-16-|
D|----|---|-x--x---x-|--x-|--x-|
A|----|---|-5--7---9-|-15-|-14-|
E|----|---|----------|----|----|

Guitar 3: Effects


Bridge:
Em          G
  And these cold winter nights
    D
without you next to me
   C          G/B
It feels like twenty below
Em          G
  Frostbite on my heart
     D
This pain and suffering are
C             G/B
feelings that you don't know


Verse 3: beat changes to fast again
Em          G
  You Don't Know
          D
You Don't know

You Don't know


      C
these feelings that
G/B       Em
you don't know
          G
You Don't Know
        D
Does it feel like
   C          G/B     Em--Em--Em--
It feels like 20 below


Outro:
Em             C
  Just wait and you'll see
       G                D C Em(let ring)
you're everything I want

_________________________________

6.) Garden Statement

Tuning: Drop D

Chords used in Drop D:
E5 -  222xxx
G5 -  555xxx
D5 -  000xxx
B9 -  x24422 or 9-9-11-x-x-x
B5 -  x244xx or 999xx
A5 -  777xxx
D5p - 0577xx

If you don't want to use Drop D, you can remain your guitar in standard EADGBe tuning by
using these chords instead of Drop D chords above. There's no difference in sound except
the low D.

Em - 022000
G  - 320033
D  - xx0232
B9 - x24422
Bm - x24432
A  - x02220


Intro: B9-D

Guitar 1: x6
e|-222222-------|
B|-222222-------|
G|-444444-------|
D|-444444--00---|
A|-222222--00---|
D|---------00---|

Guitar 2: x4
e|-----5-----5--|
B|-2/3---2/3----|
G|--------------|
D|--------------|
A|--------------|
D|--------------|


Verse 1:
E5                                                 D5p   D5
  The traffic's backed for miles on these quiet suburban roads
                                                         D5p
while the rubber necking strangers are dying to see this victim's
E5                                       D5p   D5
wounds cause he
Добавлено: 19.01.2014
Другие материалы по этой песне:
  • Аккорды и текст

Страница создана 19.01.2014
http://primanota.ru/hidden-in-plain-view/life-in-dreaming-chords.htm
Привет, Гость.
Предлагаем пройти революционный курс по гитаре.
Подарок от PrimaNota.Ru, забирай!