PrimaNota.ru - самый крупный в мире бесплатный архив песенных текстов, аккордов, табулатур и нот


Hidden In Plain View - Heavy Breathing - текст песни, таба, видео

Регистрация Запомнить меня
Войти через:  Facebook Google Twitter Vk Yandex Mail.ru

Hidden In Plain View - Heavy Breathing - текст песни, таба, видео

Печатать
Просмотров: 71
Hidden In Plain View
Heavy Breathing
Resolution
2007
Submitted by: paramore_fans@yahoo.com

Key: A

Tuning: Standard EADGBe

Chords used:
A -   x02220 or 577655
E -   022100 or 079997
F#m - 244222 or x-9-11-11-10-9
D -   xx0232 or x57775
G -   320033 or x-10-12-12-12-10
Bm -  x24432


Intro: A-E-F#m-D x2 A-E-F#m-G

Guitar 2:
e|-5----9--10-10--12-12--------|
B|-5---------------------2h3p2-|
G|-6---------------------------|
D|-7---------------------------|
A|-7---------------------------|
E|-5---------------------------|

e|-------------------|----------------------------|
B|-2---3-2--0------0-|-0-0-0-0-0-0-0-3-3-3-3-3--2-|
G|---2---------2-2---|----------------------------|
D|-------------------|----------------------------|
A|-------------------|----------------------------|
E|-------------------|----------------------------|
          x3

e|-------------------|-------------------------------0---|
B|-2---3-2--0------0-|-0-0-0-0-0-0-0--3--3--3--3--3----2-|
G|---2---------2-2---|-----------------------------------|
D|-------------------|-----------------------------------|
A|-------------------|-----------------------------------|
E|-------------------|-----------------------------------|
          x3


Verse 1:
A(silence)
  Alone in this forever got to
get back and get it together
             D
Cause you're never gonna
get anywhere this way
When you're walking in circles
every day the same well
A
  And I saw where this is going
another panic attack
                    D
The sign of slowing down
But I'm still breathing
heavy heavy breathing
With the stomach in my throat
I'm choking on the feeling
E                           G
  I'm losing all we have to offer
                         E
Cause nothing here makes sense
I'm lost I'm scared I'm
         G
numb and overwhelmed
I have to fall down when it


Chorus 1:
A     E
Every day I'm your way down
Time and time again
F#m                      D
  (I'm not so I'm not so sure)
Of anything
(Repeat twice)


Interlude: A---D


Verse 2:
A
  Come on come listen to
me listen to me (Open up)
Open up cause I know exactly
       D
What's running
through your head
It's spilling on the pages
Oh, it hurts you and
like it's so contagious
A
  It's off the mark
and a little off key
It's so overdramatic
cause this is completely
     D
It's out of your hand
sand out of control
So take the chance to
take it take it all
E                            G
  Forgetting everything I've known
                          E
(Cause nothing here makes sense)
I'm lost I'm scared
             G
I'm sick I'm not well
(And I'll never let go)


(Repeat Chorus 1 once only)


Chorus 2:
A     E
Every day I'm your way down
Time and time again
F#m                      G
  (I'm not so I'm not so sure)


Bridge:
     A          Bm
Just tell I'm alright
            G
Tell me I'm ok
Tell me anything at all to
make this feeling go away
   A
Do not believe that I'm falling
       Bm
asleep right in my hands
Everything gets by me
G
  So slowly and I'm only
halfway home and low and lonely
   A
So go ahead and tell me tell me
     Bm
I'll be alright if you
touch me hold me
     G
Yeah talk to yourself
talk to angels
Yeah talk to the night
twisting and sinking
   A
So go ahead and tell me tell
(I'll make it alone)
     Bm
I'll be alright if
you touch me, hold me
G
  And I'll make it alone
A(hold)
  Come on come listen to me


(Repeat Chorus 1 twice)
Добавлено: 07.11.2013
Другие материалы по этой песне:
  • Аккорды и текст

Страница создана 07.11.2013
http://primanota.ru/hidden-in-plain-view/heavy-breathing-chords.htm
Привет, Гость.
Предлагаем пройти революционный курс по гитаре.
Подарок от PrimaNota.Ru, забирай!